  0
SECTION
  2
HEADER
  9
$ACADVER
  1
AC1012
  9
$DWGCODEPAGE
  3
iso8859-1
  9
$INSBASE
 10
0.0
 20
0.0
 30
0.0
  9
$EXTMIN
 10
-75.317599
 20
-137.642482
 30
0.0
  9
$EXTMAX
 10
221.682401
 20
72.357518
 30
0.0
  9
$LIMMIN
 10
0.0
 20
0.0
  9
$LIMMAX
 10
12.0
 20
9.0
  9
$ORTHOMODE
 70
     0
  9
$REGENMODE
 70
     1
  9
$FILLMODE
 70
     1
  9
$QTEXTMODE
 70
     0
  9
$MIRRTEXT
 70
     1
  9
$DRAGMODE
 70
     2
  9
$LTSCALE
 40
1.0
  9
$OSMODE
 70
     0
  9
$ATTMODE
 70
     1
  9
$TEXTSIZE
 40
0.2
  9
$TRACEWID
 40
0.05
  9
$TEXTSTYLE
  7
STANDARD
  9
$CLAYER
  8
0
  9
$CELTYPE
  6
CONTINUOUS
  9
$CECOLOR
 62
   256
  9
$CELTSCALE
 40
1.0
  9
$DELOBJ
 70
     0
  9
$DISPSILH
 70
     0
  9
$DIMSCALE
 40
1.0
  9
$DIMASZ
 40
1.27
  9
$DIMEXO
 40
0.0625
  9
$DIMDLI
 40
0.38
  9
$DIMRND
 40
0.0
  9
$DIMDLE
 40
0.0
  9
$DIMEXE
 40
0.18
  9
$DIMTP
 40
0.0
  9
$DIMTM
 40
0.0
  9
$DIMTXT
 40
3.199994
  9
$DIMCEN
 40
0.09
  9
$DIMTSZ
 40
0.0
  9
$DIMTOL
 70
     0
  9
$DIMLIM
 70
     0
  9
$DIMTIH
 70
     1
  9
$DIMTOH
 70
     1
  9
$DIMSE1
 70
     0
  9
$DIMSE2
 70
     0
  9
$DIMTAD
 70
     0
  9
$DIMZIN
 70
     0
  9
$DIMBLK
  1

  9
$DIMASO
 70
     1
  9
$DIMSHO
 70
     1
  9
$DIMPOST
  1

  9
$DIMAPOST
  1

  9
$DIMALT
 70
     0
  9
$DIMALTD
 70
     2
  9
$DIMALTF
 40
25.4
  9
$DIMLFAC
 40
1.0
  9
$DIMTOFL
 70
     0
  9
$DIMTVP
 40
0.0
  9
$DIMTIX
 70
     0
  9
$DIMSOXD
 70
     0
  9
$DIMSAH
 70
     0
  9
$DIMBLK1
  1

  9
$DIMBLK2
  1

  9
$DIMSTYLE
  2
STANDARD
  9
$DIMCLRD
 70
     0
  9
$DIMCLRE
 70
     0
  9
$DIMCLRT
 70
     0
  9
$DIMTFAC
 40
1.0
  9
$DIMGAP
 40
0.09
  9
$DIMJUST
 70
     0
  9
$DIMSD1
 70
     0
  9
$DIMSD2
 70
     0
  9
$DIMTOLJ
 70
     1
  9
$DIMTZIN
 70
     0
  9
$DIMALTZ
 70
     0
  9
$DIMALTTZ
 70
     0
  9
$DIMFIT
 70
     3
  9
$DIMUPT
 70
     0
  9
$DIMUNIT
 70
     2
  9
$DIMDEC
 70
     2
  9
$DIMTDEC
 70
     2
  9
$DIMALTU
 70
     2
  9
$DIMALTTD
 70
     2
  9
$DIMTXSTY
  7
STANDARD
  9
$DIMAUNIT
 70
     0
  9
$LUNITS
 70
     2
  9
$LUPREC
 70
     4
  9
$SKETCHINC
 40
0.1
  9
$FILLETRAD
 40
0.0
  9
$AUNITS
 70
     0
  9
$AUPREC
 70
     0
  9
$MENU
  1
acad
  9
$ELEVATION
 40
0.0
  9
$PELEVATION
 40
0.0
  9
$THICKNESS
 40
0.0
  9
$LIMCHECK
 70
     0
  9
$BLIPMODE
 70
     1
  9
$CHAMFERA
 40
0.0
  9
$CHAMFERB
 40
0.0
  9
$CHAMFERC
 40
0.0
  9
$CHAMFERD
 40
0.0
  9
$SKPOLY
 70
     0
  9
$TDCREATE
 40
0.000000000
  9
$TDUPDATE
 40
0.000000000
  9
$TDINDWG
 40
0.0000000000
  9
$TDUSRTIMER
 40
0.0000000000
  9
$USRTIMER
 70
     1
  9
$ANGBASE
 50
0.0
  9
$ANGDIR
 70
     0
  9
$PDMODE
 70
     0
  9
$PDSIZE
 40
0.0
  9
$PLINEWID
 40
0.0
  9
$COORDS
 70
     0
  9
$SPLFRAME
 70
     0
  9
$SPLINETYPE
 70
     6
  9
$SPLINESEGS
 70
     8
  9
$ATTDIA
 70
     0
  9
$ATTREQ
 70
     1
  9
$HANDLING
 70
     1
  9
$HANDSEED
  5
1C4
  9
$SURFTAB1
 70
     6
  9
$SURFTAB2
 70
     6
  9
$SURFTYPE
 70
     6
  9
$SURFU
 70
     6
  9
$SURFV
 70
     6
  9
$UCSNAME
  2

  9
$UCSORG
 10
0.0
 20
0.0
 30
0.0
  9
$UCSXDIR
 10
1.0
 20
0.0
 30
0.0
  9
$UCSYDIR
 10
0.0
 20
1.0
 30
0.0
  9
$PUCSNAME
  2

  9
$PUCSORG
 10
0.0
 20
0.0
 30
0.0
  9
$PUCSXDIR
 10
1.0
 20
0.0
 30
0.0
  9
$PUCSYDIR
 10
0.0
 20
1.0
 30
0.0
  9
$USERI1
 70
     0
  9
$USERI2
 70
     0
  9
$USERI3
 70
     0
  9
$USERI4
 70
     0
  9
$USERI5
 70
     0
  9
$USERR1
 40
0.0
  9
$USERR2
 40
0.0
  9
$USERR3
 40
0.0
  9
$USERR4
 40
0.0
  9
$USERR5
 40
0.0
  9
$WORLDVIEW
 70
     1
  9
$SHADEDGE
 70
     3
  9
$SHADEDIF
 70
    70
  9
$TILEMODE
 70
     1
  9
$MAXACTVP
 70
    16
  9
$PINSBASE
 10
0.0
 20
0.0
 30
0.0
  9
$PLIMCHECK
 70
     0
  9
$PEXTMIN
 10
1.000000E+20
 20
1.000000E+20
 30
1.000000E+20
  9
$PEXTMAX
 10
-1.000000E+20
 20
-1.000000E+20
 30
-1.000000E+20
  9
$PLIMMIN
 10
0.0
 20
0.0
  9
$PLIMMAX
 10
12.0
 20
9.0
  9
$UNITMODE
 70
     0
  9
$VISRETAIN
 70
     0
  9
$PLINEGEN
 70
     0
  9
$PSLTSCALE
 70
     1
  9
$TREEDEPTH
 70
  3020
  9
$PICKSTYLE
 70
     1
  9
$CMLSTYLE
  2
STANDARD
  9
$CMLJUST
 70
     0
  9
$CMLSCALE
 40
1.0
  9
$SAVEIMAGES
 70
     0
  0
ENDSEC
  0
SECTION
  2
CLASSES
  0
CLASS
  1
LWPOLYLINE
  2
AcDbPolyline
  3
"AutoCAD"
 90
        0
280
     0
281
     1
  0
CLASS
  1
IMAGE
  2
AcDbRasterImage
  3
ISM
 90
      127
280
     0
281
     1
  0
CLASS
  1
OLE2FRAME
  2
AcDbOle2Frame
  3
""
 90
        0
280
     0
281
     1
  0
CLASS
  1
HATCH
  2
AcDbHatch
  3
"ACAD_SEDONA"
 90
        0
280
     0
281
     1
  0
CLASS
  1
DICTIONARYVAR
  2
AcDbDictionaryVar
  3
"AutoCAD"
 90
        0
280
     0
281
     0
  0
CLASS
  1
RASTERVARIABLES
  2
AcDbRasterVariables
  3
ISM
 90
        0
280
     0
281
     0
  0
CLASS
  1
IMAGEDEF
  2
AcDbRasterImageDef
  3
ISM
 90
        0
280
     0
281
     0
  0
CLASS
  1
IMAGEDEF_REACTOR
  2
AcDbRasterImageDefReactor
  3
ISM
 90
        1
280
     0
281
     0
  0
CLASS
  1
IDBUFFER
  2
AcDbIdBuffer
  3
"Acad"
 90
        0
280
     0
281
     0
  0
CLASS
  1
SPATIAL_FILTER
  2
AcDbSpatialFilter
  3
"Acad"
 90
        0
280
     0
281
     0
  0
CLASS
  1
XRECORD
  2
AcDbXrecord
  3
"<Built In>"
 90
        0
280
     0
281
     0
  0
CLASS
  1
SORTENTSTABLE
  2
AcDbSortentsTable
  3
"AutoCAD"
 90
        0
280
     0
281
     0
  0
CLASS
  1
LAYER_INDEX
  2
AcDbLayerIndex
  3
"Acad"
 90
        0
280
     0
281
     0
  0
CLASS
  1
SPATIAL_INDEX
  2
AcDbSpatialIndex
  3
"Acad"
 90
        0
280
     0
281
     0
  0
CLASS
  1
OBJECT_PTR
  2
CAseDLPNTableRecord
  3
"ASE-LPNTableRecord"
 90
        1
280
     0
281
     0
  0
ENDSEC
  0
SECTION
  2
TABLES
  0
TABLE
  2
VPORT
  5
7
100
AcDbSymbolTable
 70
     1
  0
VPORT
  5
15
100
AcDbSymbolTableRecord
100
AcDbViewportTableRecord
  2
*ACTIVE
 70
     0
 10
0.0
 20
0.0
 11
1.0
 21
1.0
 12
0.0
 22
0.0
 13
0.0
 23
0.0
 14
6.35
 24
6.35
 15
6.35
 25
6.35
 16
0.0
 26
0.0
 36
1.0
 17
0.0
 27
0.0
 37
0.0
 40
507.999992
 41
1.604229
 42
50.0
 43
0.0
 44
0.0
 50
0.0
 51
0.0
 71
     0
 72
   100
 73
     1
 74
     1
 75
     0
 76
     0
 77
     0
 78
     0
  0
ENDTAB
  0
TABLE
  2
LTYPE
  5
4
100
AcDbSymbolTable
 70
    24
  0
LTYPE
  5
11
100
AcDbSymbolTableRecord
100
AcDbLinetypeTableRecord
  2
BYBLOCK
 70
     0
  3

 72
    65
 73
     0
 40
0.0
  0
LTYPE
  5
12
100
AcDbSymbolTableRecord
100
AcDbLinetypeTableRecord
  2
BYLAYER
 70
     0
  3

 72
    65
 73
     0
 40
0.0
  0
LTYPE
  5
13
100
AcDbSymbolTableRecord
100
AcDbLinetypeTableRecord
  2
CONTINUOUS
 70
    64
  3
Style 1 Solid Line
 72
    65
 73
     0
 40
0.0
  0
LTYPE
  5
1D
100
AcDbSymbolTableRecord
100
AcDbLinetypeTableRecord
  2
DASHED
 70
    64
  3
Style 1 Dashed Line
 72
    65
 73
     2
 40
0.3
 49
0.17
 74
     0
 49
-0.13
 74
     0
  0
LTYPE
  5
1E
100
AcDbSymbolTableRecord
100
AcDbLinetypeTableRecord
  2
MCLT_DSH1
 70
    64
  3
Style 2 Dashed Line 1
 72
    65
 73
     2
 40
0.075
 49
0.04
 74
     0
 49
-0.035
 74
     0
  0
LTYPE
  5
1F
100
AcDbSymbolTableRecord
100
AcDbLinetypeTableRecord
  2
MCLT_DSH2
 70
    64
  3
Style 2 Dashed Line 2
 72
    65
 73
     2
 40
0.15
 49
0.11
 74
     0
 49
-0.04
 74
     0
  0
LTYPE
  5
20
100
AcDbSymbolTableRecord
100
AcDbLinetypeTableRecord
  2
MCLT_DSH3
 70
    64
  3
Style 2 Dashed Line 3
 72
    65
 73
     2
 40
0.2
 49
0.15
 74
     0
 49
-0.05
 74
     0
  0
LTYPE
  5
21
100
AcDbSymbolTableRecord
100
AcDbLinetypeTableRecord
  2
MCLT_DSH4
 70
    64
  3
Style 2 Dashed Line 4
 72
    65
 73
     2
 40
0.36
 49
0.28
 74
     0
 49
-0.08
 74
     0
  0
LTYPE
  5
22
100
AcDbSymbolTableRecord
100
AcDbLinetypeTableRecord
  2
MCLT_DSH5
 70
    64
  3
Style 2 Dashed Line 5
 72
    65
 73
     2
 40
0.47
 49
0.39
 74
     0
 49
-0.08
 74
     0
  0
LTYPE
  5
23
100
AcDbSymbolTableRecord
100
AcDbLinetypeTableRecord
  2
MCLT_DSH6
 70
    64
  3
Style 2 Dashed Line 6
 72
    65
 73
     2
 40
0.9
 49
0.81
 74
     0
 49
-0.09
 74
     0
  0
LTYPE
  5
24
100
AcDbSymbolTableRecord
100
AcDbLinetypeTableRecord
  2
CENTER
 70
    64
  3
Style 1 Center Line
 72
    65
 73
     4
 40
0.7
 49
0.4
 74
     0
 49
-0.1
 74
     0
 49
0.1
 74
     0
 49
-0.1
 74
     0
  0
LTYPE
  5
25
100
AcDbSymbolTableRecord
100
AcDbLinetypeTableRecord
  2
MCLT_CL1
 70
    64
  3
Style 2 Center Line 1
 72
    65
 73
     4
 40
0.7
 49
0.45
 74
     0
 49
-0.06
 74
     0
 49
0.13
 74
     0
 49
-0.06
 74
     0
  0
LTYPE
  5
26
100
AcDbSymbolTableRecord
100
AcDbLinetypeTableRecord
  2
MCLT_CL2
 70
    64
  3
Style 2 Center Line 2
 72
    65
 73
     4
 40
1.2
 49
1.01
 74
     0
 49
-0.06
 74
     0
 49
0.11
 74
     0
 49
-0.06
 74
     0
  0
LTYPE
  5
27
100
AcDbSymbolTableRecord
100
AcDbLinetypeTableRecord
  2
MCLT_CL3
 70
    64
  3
Style 2 Center Line 3
 72
    65
 73
     4
 40
1.2
 49
0.98
 74
     0
 49
-0.06
 74
     0
 49
0.1
 74
     0
 49
-0.06
 74
     0
  0
LTYPE
  5
28
100
AcDbSymbolTableRecord
100
AcDbLinetypeTableRecord
  2
MCLT_CL4
 70
    64
  3
Style 2 Center Line 4
 72
    65
 73
     4
 40
2.2
 49
1.93
 74
     0
 49
-0.07
 74
     0
 49
0.13
 74
     0
 49
-0.07
 74
     0
  0
LTYPE
  5
29
100
AcDbSymbolTableRecord
100
AcDbLinetypeTableRecord
  2
MCLT_CL5
 70
    64
  3
Style 2 Center Line 5
 72
    65
 73
     4
 40
2.2
 49
1.88
 74
     0
 49
-0.07
 74
     0
 49
0.18
 74
     0
 49
-0.07
 74
     0
  0
LTYPE
  5
2A
100
AcDbSymbolTableRecord
100
AcDbLinetypeTableRecord
  2
PHANTOM
 70
    64
  3
Style 1 Phantom Line
 72
    65
 73
     6
 40
1.0
 49
0.5
 74
     0
 49
-0.1
 74
     0
 49
0.1
 74
     0
 49
-0.1
 74
     0
 49
0.1
 74
     0
 49
-0.1
 74
     0
  0
LTYPE
  5
2B
100
AcDbSymbolTableRecord
100
AcDbLinetypeTableRecord
  2
MCLT_PL1
 70
    64
  3
Style 2 Phantom Line 1
 72
    65
 73
     6
 40
1.0
 49
0.6
 74
     0
 49
-0.08
 74
     0
 49
0.08
 74
     0
 49
-0.08
 74
     0
 49
0.08
 74
     0
 49
-0.08
 74
     0
  0
LTYPE
  5
2C
100
AcDbSymbolTableRecord
100
AcDbLinetypeTableRecord
  2
MCLT_PL2
 70
    64
  3
Style 2 Phantom Line 2
 72
    65
 73
     6
 40
1.08
 49
0.6
 74
     0
 49
-0.08
 74
     0
 49
0.12
 74
     0
 49
-0.08
 74
     0
 49
0.12
 74
     0
 49
-0.08
 74
     0
  0
LTYPE
  5
2D
100
AcDbSymbolTableRecord
100
AcDbLinetypeTableRecord
  2
MCLT_PL3
 70
    64
  3
Style 2 Phantom Line 3
 72
    65
 73
     6
 40
2.0
 49
1.44
 74
     0
 49
-0.08
 74
     0
 49
0.16
 74
     0
 49
-0.08
 74
     0
 49
0.16
 74
     0
 49
-0.08
 74
     0
  0
LTYPE
  5
2E
100
AcDbSymbolTableRecord
100
AcDbLinetypeTableRecord
  2
MCLT_SBK1
 70
    64
  3
Style 2 Set Back Line 1
 72
    65
 73
     8
 40
2.7
 49
2.08
 74
     0
 49
-0.08
 74
     0
 49
0.1
 74
     0
 49
-0.08
 74
     0
 49
0.1
 74
     0
 49
-0.08
 74
     0
 49
0.1
 74
     0
 49
-0.8
 74
     0
  0
LTYPE
  5
2F
100
AcDbSymbolTableRecord
100
AcDbLinetypeTableRecord
  2
MCLT_SBK2
 70
    64
  3
Style 2 Set Back Line 2
 72
    65
 73
     8
 40
3.71
 49
3.0
 74
     0
 49
-0.8
 74
     0
 49
0.13
 74
     0
 49
-0.08
 74
     0
 49
0.13
 74
     0
 49
-0.08
 74
     0
 49
0.13
 74
     0
 49
-0.8
 74
     0
  0
LTYPE
  5
30
100
AcDbSymbolTableRecord
100
AcDbLinetypeTableRecord
  2
MCLT_STCH
 70
    64
  3
Style 2 Stitch Line
 72
    65
 73
     2
 40
0.25
 49
0.0
 74
     0
 49
-0.25
 74
     0
  0
LTYPE
  5
31
100
AcDbSymbolTableRecord
100
AcDbLinetypeTableRecord
  2
MCLT_MTCH
 70
    64
  3
Style 2 Match Line
 72
    65
 73
     6
 40
2.0
 49
1.44
 74
     0
 49
-0.8
 74
     0
 49
0.16
 74
     0
 49
-0.08
 74
     0
 49
0.16
 74
     0
 49
-0.08
 74
     0
  0
ENDTAB
  0
TABLE
  2
LAYER
  5
2
100
AcDbSymbolTable
 70
     6
  0
LAYER
  5
14
100
AcDbSymbolTableRecord
100
AcDbLayerTableRecord
  2
0
 70
     0
 62
     7
  6
CONTINUOUS
  0
LAYER
  5
32
100
AcDbSymbolTableRecord
100
AcDbLayerTableRecord
  2
CA
 70
     0
 62
     7
  6
CONTINUOUS
  0
LAYER
  5
33
100
AcDbSymbolTableRecord
100
AcDbLayerTableRecord
  2
EV
 70
     0
 62
     7
  6
CONTINUOUS
  0
LAYER
  5
34
100
AcDbSymbolTableRecord
100
AcDbLayerTableRecord
  2
IV
 70
     0
 62
     7
  6
CONTINUOUS
  0
LAYER
  5
35
100
AcDbSymbolTableRecord
100
AcDbLayerTableRecord
  2
PV
 70
     0
 62
     7
  6
CONTINUOUS
  0
LAYER
  5
36
100
AcDbSymbolTableRecord
100
AcDbLayerTableRecord
  2
SV
 70
     0
 62
     7
  6
CONTINUOUS
  0
ENDTAB
  0
TABLE
  2
STYLE
  5
3
100
AcDbSymbolTable
 70
     2
  0
STYLE
  5
17
100
AcDbSymbolTableRecord
100
AcDbTextStyleTableRecord
  2
STANDARD
 70
     0
 40
0.0
 41
1.0
 50
0.0
 71
     0
 42
4.1672
  3
MONOTXT
  4

  0
STYLE
  5
37
100
AcDbSymbolTableRecord
100
AcDbTextStyleTableRecord
  2
MICROCADAM
 70
     0
 40
4.1672
 41
1.0
 50
0.0
 71
     0
 42
4.1672
  3
MONOTXT
  4

  0
ENDTAB
  0
TABLE
  2
VIEW
  5
5
100
AcDbSymbolTable
 70
     0
  0
ENDTAB
  0
TABLE
  2
UCS
  5
6
100
AcDbSymbolTable
 70
     0
  0
ENDTAB
  0
TABLE
  2
APPID
  5
8
100
AcDbSymbolTable
 70
     1
  0
APPID
  5
16
100
AcDbSymbolTableRecord
100
AcDbRegAppTableRecord
  2
ACAD
 70
     0
  0
ENDTAB
  0
TABLE
  2
DIMSTYLE
  5
9
100
AcDbSymbolTable
 70
     1
  0
DIMSTYLE
105
18
100
AcDbSymbolTableRecord
100
AcDbDimStyleTableRecord
  2
STANDARD
 70
     0
  3

  4

  5

  6

  7

 40
1.0
 41
1.27
 42
0.0625
 43
0.38
 44
0.18
 45
0.0
 46
0.0
 47
0.0
 48
0.0
140
3.199994
141
0.09
142
0.0
143
25.4
144
1.0
145
0.0
146
1.0
147
0.09
 71
     0
 72
     0
 73
     1
 74
     1
 75
     0
 76
     0
 77
     0
 78
     0
170
     0
171
     2
172
     0
173
     0
174
     0
175
     0
176
     0
177
     0
178
     0
270
     2
271
     2
272
     2
273
     2
274
     2
340
17
275
     0
280
     0
281
     0
282
     0
283
     1
284
     0
285
     0
286
     0
287
     3
288
     0
  0
ENDTAB
  0
TABLE
  2
BLOCK_RECORD
  5
1
100
AcDbSymbolTable
 70
    20
  0
BLOCK_RECORD
  5
A
100
AcDbSymbolTableRecord
100
AcDbBlockTableRecord
  2
*MODEL_SPACE
  0
BLOCK_RECORD
  5
B
100
AcDbSymbolTableRecord
100
AcDbBlockTableRecord
  2
*PAPER_SPACE
  0
BLOCK_RECORD
  5
F2
100
AcDbSymbolTableRecord
100
AcDbBlockTableRecord
  2
*D0
  0
BLOCK_RECORD
  5
FD
100
AcDbSymbolTableRecord
100
AcDbBlockTableRecord
  2
*D1
  0
BLOCK_RECORD
  5
108
100
AcDbSymbolTableRecord
100
AcDbBlockTableRecord
  2
*D2
  0
BLOCK_RECORD
  5
112
100
AcDbSymbolTableRecord
100
AcDbBlockTableRecord
  2
*D3
  0
BLOCK_RECORD
  5
11B
100
AcDbSymbolTableRecord
100
AcDbBlockTableRecord
  2
*D4
  0
BLOCK_RECORD
  5
124
100
AcDbSymbolTableRecord
100
AcDbBlockTableRecord
  2
*D5
  0
BLOCK_RECORD
  5
12E
100
AcDbSymbolTableRecord
100
AcDbBlockTableRecord
  2
*D6
  0
BLOCK_RECORD
  5
137
100
AcDbSymbolTableRecord
100
AcDbBlockTableRecord
  2
*D7
  0
BLOCK_RECORD
  5
140
100
AcDbSymbolTableRecord
100
AcDbBlockTableRecord
  2
*D8
  0
BLOCK_RECORD
  5
148
100
AcDbSymbolTableRecord
100
AcDbBlockTableRecord
  2
*D9
  0
BLOCK_RECORD
  5
150
100
AcDbSymbolTableRecord
100
AcDbBlockTableRecord
  2
*D10
  0
BLOCK_RECORD
  5
159
100
AcDbSymbolTableRecord
100
AcDbBlockTableRecord
  2
*D11
  0
BLOCK_RECORD
  5
163
100
AcDbSymbolTableRecord
100
AcDbBlockTableRecord
  2
*D12
  0
BLOCK_RECORD
  5
16C
100
AcDbSymbolTableRecord
100
AcDbBlockTableRecord
  2
*D13
  0
BLOCK_RECORD
  5
176
100
AcDbSymbolTableRecord
100
AcDbBlockTableRecord
  2
*D14
  0
BLOCK_RECORD
  5
17F
100
AcDbSymbolTableRecord
100
AcDbBlockTableRecord
  2
*D15
  0
BLOCK_RECORD
  5
189
100
AcDbSymbolTableRecord
100
AcDbBlockTableRecord
  2
*D16
  0
BLOCK_RECORD
  5
191
100
AcDbSymbolTableRecord
100
AcDbBlockTableRecord
  2
*D17
  0
BLOCK_RECORD
  5
19A
100
AcDbSymbolTableRecord
100
AcDbBlockTableRecord
  2
*D18
  0
BLOCK_RECORD
  5
1A4
100
AcDbSymbolTableRecord
100
AcDbBlockTableRecord
  2
*D19
  0
ENDTAB
  0
ENDSEC
  0
SECTION
  2
BLOCKS
  0
BLOCK
  5
D
100
AcDbEntity
  8
0
100
AcDbBlockBegin
  2
*MODEL_SPACE
 70
     0
 10
0.0
 20
0.0
 30
0.0
  3
*MODEL_SPACE
  1

  0
ENDBLK
  5
E
100
AcDbEntity
  8
0
100
AcDbBlockEnd
  0
BLOCK
  5
F
100
AcDbEntity
 67
     1
  8
0
100
AcDbBlockBegin
  2
*PAPER_SPACE
 70
     0
 10
0.0
 20
0.0
 30
0.0
  3
*PAPER_SPACE
  1

  0
ENDBLK
  5
10
100
AcDbEntity
 67
     1
  8
0
100
AcDbBlockEnd
  0
BLOCK
  5
F3
100
AcDbEntity
  8
PV
  6
CONTINUOUS
 62
     4
100
AcDbBlockBegin
  2
*D0
 70
     1
 10
0.0
 20
0.0
 30
0.0
  3
*D0
  1

  0
LINE
  5
F4
100
AcDbEntity
  8
PV
  6
CONTINUOUS
 62
     4
100
AcDbLine
 10
28.688299
 20
17.0
 30
0.0
 11
28.688299
 21
-17.0
 31
0.0
  0
LINE
  5
F5
100
AcDbEntity
  8
PV
  6
CONTINUOUS
 62
     4
100
AcDbLine
 10
29.271799
 20
14.189737
 30
0.0
 11
28.688299
 21
17.0
 31
0.0
  0
LINE
  5
F6
100
AcDbEntity
  8
PV
  6
CONTINUOUS
 62
     4
100
AcDbLine
 10
28.688299
 20
17.0
 30
0.0
 11
28.104777
 21
14.189742
 31
0.0
  0
LINE
  5
F7
100
AcDbEntity
  8
PV
  6
CONTINUOUS
 62
     4
100
AcDbLine
 10
28.104792
 20
-14.189739
 30
0.0
 11
28.688299
 21
-17.0
 31
0.0
  0
LINE
  5
F8
100
AcDbEntity
  8
PV
  6
CONTINUOUS
 62
     4
100
AcDbLine
 10
28.688299
 20
-17.0
 30
0.0
 11
29.271814
 21
-14.189741
 31
0.0
  0
LINE
  5
F9
100
AcDbEntity
  8
PV
  6
CONTINUOUS
 62
     4
100
AcDbLine
 10
16.04
 20
17.0
 30
0.0
 11
30.9743
 21
17.0
 31
0.0
  0
LINE
  5
FA
100
AcDbEntity
  8
PV
  6
CONTINUOUS
 62
     4
100
AcDbLine
 10
16.04
 20
-17.0
 30
0.0
 11
30.9743
 21
-17.0
 31
0.0
  0
TEXT
  5
FB
100
AcDbEntity
  8
PV
  6
CONTINUOUS
 62
     4
100
AcDbText
 10
27.621632
 20
-2.952458
 30
0.0
 40
3.2
  1
34
 50
90.000003
 41
1.0
  7
MICROCADAM
100
AcDbText
  0
ENDBLK
  5
FC
100
AcDbEntity
  8
0
100
AcDbBlockEnd
  0
BLOCK
  5
FE
100
AcDbEntity
  8
PV
  6
CONTINUOUS
 62
     4
100
AcDbBlockBegin
  2
*D1
 70
     1
 10
0.0
 20
0.0
 30
0.0
  3
*D1
  1

  0
LINE
  5
FF
100
AcDbEntity
  8
PV
  6
CONTINUOUS
 62
     4
100
AcDbLine
 10
-13.5
 20
-39.292694
 30
0.0
 11
13.5
 21
-39.292694
 31
0.0
  0
LINE
  5
100
100
AcDbEntity
  8
PV
  6
CONTINUOUS
 62
     4
100
AcDbLine
 10
-10.68974
 20
-38.709183
 30
0.0
 11
-13.5
 21
-39.292694
 31
0.0
  0
LINE
  5
101
100
AcDbEntity
  8
PV
  6
CONTINUOUS
 62
     4
100
AcDbLine
 10
-13.5
 20
-39.292694
 30
0.0
 11
-10.689743
 21
-39.87622
 31
0.0
  0
LINE
  5
102
100
AcDbEntity
  8
PV
  6
CONTINUOUS
 62
     4
100
AcDbLine
 10
10.689738
 20
-39.876198
 30
0.0
 11
13.5
 21
-39.292694
 31
0.0
  0
LINE
  5
103
100
AcDbEntity
  8
PV
  6
CONTINUOUS
 62
     4
100
AcDbLine
 10
13.5
 20
-39.292694
 30
0.0
 11
10.689741
 21
-38.709176
 31
0.0
  0
LINE
  5
104
100
AcDbEntity
  8
PV
  6
CONTINUOUS
 62
     4
100
AcDbLine
 10
-13.50001
 20
-19.54
 30
0.0
 11
-13.5
 21
-41.578693
 31
0.0
  0
LINE
  5
105
100
AcDbEntity
  8
PV
  6
CONTINUOUS
 62
     4
100
AcDbLine
 10
13.49999
 20
-19.54
 30
0.0
 11
13.5
 21
-41.578693
 31
0.0
  0
TEXT
  5
106
100
AcDbEntity
  8
PV
  6
CONTINUOUS
 62
     4
100
AcDbText
 10
-3.090803
 20
-38.226027
 30
0.0
 40
3.2
  1
27
 41
1.0
  7
MICROCADAM
100
AcDbText
  0
ENDBLK
  5
107
100
AcDbEntity
  8
0
100
AcDbBlockEnd
  0
BLOCK
  5
109
100
AcDbEntity
  8
PV
  6
CONTINUOUS
 62
     4
100
AcDbBlockBegin
  2
*D2
 70
     1
 10
0.0
 20
0.0
 30
0.0
  3
*D2
  1

  0
LINE
  5
10A
100
AcDbEntity
  8
PV
  6
CONTINUOUS
 62
     4
100
AcDbLine
 10
-25.016915
 20
-6.15
 30
0.0
 11
-25.016949
 21
-23.35
 31
0.0
  0
SOLID
  5
10B
100
AcDbEntity
  8
PV
  6
CONTINUOUS
 62
     4
100
AcDbTrace
 10
-25.600431
 20
-9.689739
 30
0.0
 11
-25.016924
 21
-12.5
 31
0.0
 12
-24.433409
 22
-9.689741
 32
0.0
 13
-24.433409
 23
-9.689741
 33
0.0
  0
SOLID
  5
10C
100
AcDbEntity
  8
PV
  6
CONTINUOUS
 62
     4
100
AcDbTrace
 10
-24.433424
 20
-19.810263
 30
0.0
 11
-25.016924
 21
-17.0
 31
0.0
 12
-25.600446
 22
-19.810258
 32
0.0
 13
-25.600446
 23
-19.810258
 33
0.0
  0
LINE
  5
10D
100
AcDbEntity
  8
PV
  6
CONTINUOUS
 62
     4
100
AcDbLine
 10
-25.016924
 20
-17.0
 30
0.0
 11
-25.016924
 21
-30.683733
 31
0.0
  0
LINE
  5
10E
100
AcDbEntity
  8
PV
  6
CONTINUOUS
 62
     4
100
AcDbLine
 10
-18.879233
 20
-12.499993
 30
0.0
 11
-27.302925
 21
-12.5
 31
0.0
  0
LINE
  5
10F
100
AcDbEntity
  8
PV
  6
CONTINUOUS
 62
     4
100
AcDbLine
 10
-16.04
 20
-16.999993
 30
0.0
 11
-27.302925
 21
-17.0
 31
0.0
  0
TEXT
  5
110
100
AcDbEntity
  8
PV
  6
CONTINUOUS
 62
     4
100
AcDbText
 10
-26.016924
 20
-31.283733
 30
0.0
 40
3.0
  1
4.5
 50
90.000003
  7
MICROCADAM
100
AcDbText
  0
ENDBLK
  5
111
100
AcDbEntity
  8
0
100
AcDbBlockEnd
  0
BLOCK
  5
113
100
AcDbEntity
  8
PV
  6
CONTINUOUS
 62
     4
100
AcDbBlockBegin
  2
*D3
 70
     1
 10
0.0
 20
0.0
 30
0.0
  3
*D3
  1

  0
LINE
  5
114
100
AcDbEntity
  8
PV
  6
CONTINUOUS
 62
     4
100
AcDbLine
 10
-31.832113
 20
-17.0
 30
0.0
 11
-31.832113
 21
0.0
 31
0.0
  0
SOLID
  5
115
100
AcDbEntity
  8
PV
  6
CONTINUOUS
 62
     4
100
AcDbTrace
 10
-32.415621
 20
-14.189739
 30
0.0
 11
-31.832113
 21
-17.0
 31
0.0
 12
-31.248598
 22
-14.189741
 32
0.0
 13
-31.248598
 23
-14.189741
 33
0.0
  0
SOLID
  5
116
100
AcDbEntity
  8
PV
  6
CONTINUOUS
 62
     4
100
AcDbTrace
 10
-31.248613
 20
-2.810263
 30
0.0
 11
-31.832113
 21
0.0
 31
0.0
 12
-32.415636
 22
-2.810258
 32
0.0
 13
-32.415636
 23
-2.810258
 33
0.0
  0
LINE
  5
117
100
AcDbEntity
  8
PV
  6
CONTINUOUS
 62
     4
100
AcDbLine
 10
-16.04
 20
-16.999993
 30
0.0
 11
-34.118111
 21
-17.0
 31
0.0
  0
LINE
  5
118
100
AcDbEntity
  8
PV
  6
CONTINUOUS
 62
     4
100
AcDbLine
 10
-19.053603
 20
0.000007
 30
0.0
 11
-34.118111
 21
0.0
 31
0.0
  0
TEXT
  5
119
100
AcDbEntity
  8
PV
  6
CONTINUOUS
 62
     4
100
AcDbText
 10
-32.832113
 20
-11.0
 30
0.0
 40
3.0
  1
17
 50
90.000003
  7
MICROCADAM
100
AcDbText
  0
ENDBLK
  5
11A
100
AcDbEntity
  8
0
100
AcDbBlockEnd
  0
BLOCK
  5
11C
100
AcDbEntity
  8
PV
  6
CONTINUOUS
 62
     4
100
AcDbBlockBegin
  2
*D4
 70
     1
 10
0.0
 20
0.0
 30
0.0
  3
*D4
  1

  0
LINE
  5
11D
100
AcDbEntity
  8
PV
  6
CONTINUOUS
 62
     4
100
AcDbLine
 10
-39.669579
 20
-17.0
 30
0.0
 11
-39.669579
 21
12.5
 31
0.0
  0
SOLID
  5
11E
100
AcDbEntity
  8
PV
  6
CONTINUOUS
 62
     4
100
AcDbTrace
 10
-40.253086
 20
-14.189739
 30
0.0
 11
-39.669579
 21
-17.0
 31
0.0
 12
-39.086064
 22
-14.189741
 32
0.0
 13
-39.086064
 23
-14.189741
 33
0.0
  0
SOLID
  5
11F
100
AcDbEntity
  8
PV
  6
CONTINUOUS
 62
     4
100
AcDbTrace
 10
-39.086079
 20
9.689737
 30
0.0
 11
-39.669579
 21
12.5
 31
0.0
 12
-40.253101
 22
9.689742
 32
0.0
 13
-40.253101
 23
9.689742
 33
0.0
  0
LINE
  5
120
100
AcDbEntity
  8
PV
  6
CONTINUOUS
 62
     4
100
AcDbLine
 10
-16.04
 20
-16.999993
 30
0.0
 11
-41.955578
 21
-17.0
 31
0.0
  0
LINE
  5
121
100
AcDbEntity
  8
PV
  6
CONTINUOUS
 62
     4
100
AcDbLine
 10
-19.111726
 20
12.500007
 30
0.0
 11
-41.955578
 21
12.5
 31
0.0
  0
TEXT
  5
122
100
AcDbEntity
  8
PV
  6
CONTINUOUS
 62
     4
100
AcDbText
 10
-40.669578
 20
-7.75
 30
0.0
 40
3.0
  1
29.5
 50
90.000003
  7
MICROCADAM
100
AcDbText
  0
ENDBLK
  5
123
100
AcDbEntity
  8
0
100
AcDbBlockEnd
  0
BLOCK
  5
125
100
AcDbEntity
  8
PV
  6
CONTINUOUS
 62
     4
100
AcDbBlockBegin
  2
*D5
 70
     1
 10
0.0
 20
0.0
 30
0.0
  3
*D5
  1

  0
LINE
  5
126
100
AcDbEntity
  8
PV
  6
CONTINUOUS
 62
     4
100
AcDbLine
 10
-19.85
 20
24.863889
 30
0.0
 11
-4.15
 21
24.863873
 31
0.0
  0
SOLID
  5
127
100
AcDbEntity
  8
PV
  6
CONTINUOUS
 62
     4
100
AcDbTrace
 10
-16.310262
 20
24.280369
 30
0.0
 11
-13.5
 21
24.863873
 31
0.0
 12
-16.310259
 22
25.447391
 32
0.0
 13
-16.310259
 23
25.447391
 33
0.0
  0
SOLID
  5
128
100
AcDbEntity
  8
PV
  6
CONTINUOUS
 62
     4
100
AcDbTrace
 10
-7.68974
 20
25.447384
 30
0.0
 11
-10.5
 21
24.863873
 31
0.0
 12
-7.68974
 22
24.280361
 32
0.0
 13
-7.68974
 23
24.280361
 33
0.0
  0
LINE
  5
129
100
AcDbEntity
  8
PV
  6
CONTINUOUS
 62
     4
100
AcDbLine
 10
-13.5
 20
24.863873
 30
0.0
 11
-22.88343
 21
24.863873
 31
0.0
  0
LINE
  5
12A
100
AcDbEntity
  8
PV
  6
CONTINUOUS
 62
     4
100
AcDbLine
 10
-13.499997
 20
19.54
 30
0.0
 11
-13.5
 21
27.149872
 31
0.0
  0
LINE
  5
12B
100
AcDbEntity
  8
PV
  6
CONTINUOUS
 62
     4
100
AcDbLine
 10
-10.499997
 20
22.39465
 30
0.0
 11
-10.5
 21
27.149872
 31
0.0
  0
TEXT
  5
12C
100
AcDbEntity
  8
PV
  6
CONTINUOUS
 62
     4
100
AcDbText
 10
-22.88343
 20
25.863873
 30
0.0
 40
3.0
  1
3
  7
MICROCADAM
100
AcDbText
  0
ENDBLK
  5
12D
100
AcDbEntity
  8
0
100
AcDbBlockEnd
  0
BLOCK
  5
12F
100
AcDbEntity
  8
PV
  6
CONTINUOUS
 62
     4
100
AcDbBlockBegin
  2
*D6
 70
     1
 10
0.0
 20
0.0
 30
0.0
  3
*D6
  1

  0
LINE
  5
130
100
AcDbEntity
  8
PV
  6
CONTINUOUS
 62
     4
100
AcDbLine
 10
-13.5
 20
32.284893
 30
0.0
 11
10.5
 21
32.284893
 31
0.0
  0
SOLID
  5
131
100
AcDbEntity
  8
PV
  6
CONTINUOUS
 62
     4
100
AcDbTrace
 10
-10.68974
 20
32.868404
 30
0.0
 11
-13.5
 21
32.284893
 31
0.0
 12
-10.689743
 22
31.701367
 32
0.0
 13
-10.689743
 23
31.701367
 33
0.0
  0
SOLID
  5
132
100
AcDbEntity
  8
PV
  6
CONTINUOUS
 62
     4
100
AcDbTrace
 10
7.689738
 20
31.701389
 30
0.0
 11
10.5
 21
32.284893
 31
0.0
 12
7.689741
 22
32.868412
 32
0.0
 13
7.689741
 23
32.868412
 33
0.0
  0
LINE
  5
133
100
AcDbEntity
  8
PV
  6
CONTINUOUS
 62
     4
100
AcDbLine
 10
-13.499997
 20
19.54
 30
0.0
 11
-13.5
 21
34.570896
 31
0.0
  0
LINE
  5
134
100
AcDbEntity
  8
PV
  6
CONTINUOUS
 62
     4
100
AcDbLine
 10
10.500003
 20
22.73541
 30
0.0
 11
10.5
 21
34.570896
 31
0.0
  0
TEXT
  5
135
100
AcDbEntity
  8
PV
  6
CONTINUOUS
 62
     4
100
AcDbText
 10
-4.0
 20
33.284893
 30
0.0
 40
3.0
  1
24
  7
MICROCADAM
100
AcDbText
  0
ENDBLK
  5
136
100
AcDbEntity
  8
0
100
AcDbBlockEnd
  0
BLOCK
  5
138
100
AcDbEntity
  8
PV
  6
CONTINUOUS
 62
     4
100
AcDbBlockBegin
  2
*D7
 70
     1
 10
0.0
 20
0.0
 30
0.0
  3
*D7
  1

  0
LINE
  5
139
100
AcDbEntity
  8
PV
  6
CONTINUOUS
 62
     4
100
AcDbLine
 10
-13.5
 20
-29.782486
 30
0.0
 11
0.0
 21
-29.782486
 31
0.0
  0
SOLID
  5
13A
100
AcDbEntity
  8
PV
  6
CONTINUOUS
 62
     4
100
AcDbTrace
 10
-10.68974
 20
-29.198975
 30
0.0
 11
-13.5
 21
-29.782486
 31
0.0
 12
-10.689743
 22
-30.366012
 32
0.0
 13
-10.689743
 23
-30.366012
 33
0.0
  0
SOLID
  5
13B
100
AcDbEntity
  8
PV
  6
CONTINUOUS
 62
     4
100
AcDbTrace
 10
-2.810262
 20
-30.36599
 30
0.0
 11
0.0
 21
-29.782486
 31
0.0
 12
-2.810259
 22
-29.198967
 32
0.0
 13
-2.810259
 23
-29.198967
 33
0.0
  0
LINE
  5
13C
100
AcDbEntity
  8
PV
  6
CONTINUOUS
 62
     4
100
AcDbLine
 10
-13.50001
 20
-19.54
 30
0.0
 11
-13.5
 21
-32.068485
 31
0.0
  0
LINE
  5
13D
100
AcDbEntity
  8
PV
  6
CONTINUOUS
 62
     4
100
AcDbLine
 10
-0.00001
 20
-15.24
 30
0.0
 11
0.0
 21
-32.068485
 31
0.0
  0
TEXT
  5
13E
100
AcDbEntity
  8
PV
  6
CONTINUOUS
 62
     4
100
AcDbText
 10
-11.964403
 20
-28.782486
 30
0.0
 40
3.0
  1
13.5
  7
MICROCADAM
100
AcDbText
  0
ENDBLK
  5
13F
100
AcDbEntity
  8
0
100
AcDbBlockEnd
  0
BLOCK
  5
141
100
AcDbEntity
  8
PV
  6
CONTINUOUS
 62
     4
100
AcDbBlockBegin
  2
*D8
 70
     1
 10
0.0
 20
0.0
 30
0.0
  3
*D8
  1

  0
LINE
  5
142
100
AcDbEntity
  8
PV
  6
CONTINUOUS
 62
     4
100
AcDbLine
 10
4.495275
 20
7.289839
 30
0.0
 11
16.504714
 21
17.710173
 31
0.0
  0
SOLID
  5
143
100
AcDbEntity
  8
PV
  6
CONTINUOUS
 62
     4
100
AcDbTrace
 10
7.551289
 20
9.168935
 30
0.0
 11
9.291505
 21
11.451411
 31
0.0
 12
6.786465
 22
10.050403
 32
0.0
 13
6.786465
 23
10.050403
 33
0.0
  0
SOLID
  5
144
100
AcDbEntity
  8
PV
  6
CONTINUOUS
 62
     4
100
AcDbTrace
 10
13.448705
 20
15.83107
 30
0.0
 11
11.708495
 21
13.548589
 31
0.0
 12
14.213531
 22
14.949604
 32
0.0
 13
14.213531
 23
14.949604
 33
0.0
  0
LINE
  5
145
100
AcDbEntity
  8
PV
  6
CONTINUOUS
 62
     4
100
AcDbLine
 10
11.708495
 20
13.548589
 30
0.0
 11
27.655807
 21
27.385778
 31
0.0
  0
TEXT
  5
146
100
AcDbEntity
  8
PV
  6
CONTINUOUS
 62
     4
100
AcDbText
 10
16.87611
 20
19.364089
 30
0.0
 40
3.0
  1
%%C 3.2
 50
40.9
  7
MICROCADAM
100
AcDbText
  0
ENDBLK
  5
147
100
AcDbEntity
  8
0
100
AcDbBlockEnd
  0
BLOCK
  5
149
100
AcDbEntity
  8
PV
  6
CONTINUOUS
 62
     4
100
AcDbBlockBegin
  2
*D9
 70
     1
 10
0.0
 20
0.0
 30
0.0
  3
*D9
  1

  0
LINE
  5
14A
100
AcDbEntity
  8
PV
  6
CONTINUOUS
 62
     4
100
AcDbLine
 10
7.496275
 20
11.448654
 30
0.0
 11
-7.496277
 21
13.951329
 31
0.0
  0
SOLID
  5
14B
100
AcDbEntity
  8
PV
  6
CONTINUOUS
 62
     4
100
AcDbTrace
 10
4.100922
 20
12.607033
 30
0.0
 11
1.232941
 21
12.494192
 31
0.0
 12
3.908767
 22
11.455924
 32
0.0
 13
3.908767
 23
11.455924
 33
0.0
  0
SOLID
  5
14C
100
AcDbEntity
  8
PV
  6
CONTINUOUS
 62
     4
100
AcDbTrace
 10
-4.100922
 20
12.792975
 30
0.0
 11
-1.232941
 21
12.905808
 31
0.0
 12
-3.90877
 22
13.944069
 32
0.0
 13
-3.90877
 23
13.944069
 33
0.0
  0
LINE
  5
14D
100
AcDbEntity
  8
PV
  6
CONTINUOUS
 62
     4
100
AcDbLine
 10
-1.232941
 20
12.905808
 30
0.0
 11
-38.124519
 21
19.063921
 31
0.0
  0
TEXT
  5
14E
100
AcDbEntity
  8
PV
  6
CONTINUOUS
 62
     4
100
AcDbText
 10
-38.550813
 20
20.151802
 30
0.0
 40
3.0
  1
M 2.5
 50
350.5
  7
MICROCADAM
100
AcDbText
  0
ENDBLK
  5
14F
100
AcDbEntity
  8
0
100
AcDbBlockEnd
  0
BLOCK
  5
151
100
AcDbEntity
  8
PV
  6
CONTINUOUS
 62
     4
100
AcDbBlockBegin
  2
*D10
 70
     1
 10
0.0
 20
0.0
 30
0.0
  3
*D10
  1

  0
LINE
  5
152
100
AcDbEntity
  8
PV
  6
CONTINUOUS
 62
     4
100
AcDbLine
 10
-25.549139
 20
17.0
 30
0.0
 11
-25.549139
 21
7.0
 31
0.0
  0
SOLID
  5
153
100
AcDbEntity
  8
PV
  6
CONTINUOUS
 62
     4
100
AcDbTrace
 10
-24.965639
 20
14.189737
 30
0.0
 11
-25.549139
 21
17.0
 31
0.0
 12
-26.132661
 22
14.189742
 32
0.0
 13
-26.132661
 23
14.189742
 33
0.0
  0
SOLID
  5
154
100
AcDbEntity
  8
PV
  6
CONTINUOUS
 62
     4
100
AcDbTrace
 10
-26.132646
 20
9.810261
 30
0.0
 11
-25.549139
 21
7.0
 31
0.0
 12
-24.965624
 22
9.810259
 32
0.0
 13
-24.965624
 23
9.810259
 33
0.0
  0
LINE
  5
155
100
AcDbEntity
  8
PV
  6
CONTINUOUS
 62
     4
100
AcDbLine
 10
-5.04
 20
17.000007
 30
0.0
 11
-27.835138
 21
17.0
 31
0.0
  0
LINE
  5
156
100
AcDbEntity
  8
PV
  6
CONTINUOUS
 62
     4
100
AcDbLine
 10
-5.04
 20
7.000007
 30
0.0
 11
-27.835138
 21
7.0
 31
0.0
  0
TEXT
  5
157
100
AcDbEntity
  8
PV
  6
CONTINUOUS
 62
     4
100
AcDbText
 10
-26.549139
 20
9.5
 30
0.0
 40
3.0
  1
10
 50
90.000003
  7
MICROCADAM
100
AcDbText
  0
ENDBLK
  5
158
100
AcDbEntity
  8
0
100
AcDbBlockEnd
  0
BLOCK
  5
15A
100
AcDbEntity
  8
SV
  6
CONTINUOUS
 62
     4
100
AcDbBlockBegin
  2
*D11
 70
     1
 10
0.0
 20
0.0
 30
0.0
  3
*D11
  1

  0
LINE
  5
15B
100
AcDbEntity
  8
SV
  6
CONTINUOUS
 62
     4
100
AcDbLine
 10
112.650979
 20
-6.35
 30
0.0
 11
112.650945
 21
-23.35
 31
0.0
  0
SOLID
  5
15C
100
AcDbEntity
  8
SV
  6
CONTINUOUS
 62
     4
100
AcDbTrace
 10
112.067463
 20
-9.889739
 30
0.0
 11
112.65097
 21
-12.7
 31
0.0
 12
113.234485
 22
-9.88974
 32
0.0
 13
113.234485
 23
-9.88974
 33
0.0
  0
SOLID
  5
15D
100
AcDbEntity
  8
SV
  6
CONTINUOUS
 62
     4
100
AcDbTrace
 10
113.23447
 20
-19.810263
 30
0.0
 11
112.65097
 21
-17.0
 31
0.0
 12
112.067448
 22
-19.810258
 32
0.0
 13
112.067448
 23
-19.810258
 33
0.0
  0
LINE
  5
15E
100
AcDbEntity
  8
SV
  6
CONTINUOUS
 62
     4
100
AcDbLine
 10
112.65097
 20
-17.0
 30
0.0
 11
112.65097
 21
-29.326937
 31
0.0
  0
LINE
  5
15F
100
AcDbEntity
  8
SV
  6
CONTINUOUS
 62
     4
100
AcDbLine
 10
120.264703
 20
-12.699993
 30
0.0
 11
110.364975
 21
-12.7
 31
0.0
  0
LINE
  5
160
100
AcDbEntity
  8
SV
  6
CONTINUOUS
 62
     4
100
AcDbLine
 10
115.96
 20
-16.999993
 30
0.0
 11
110.364975
 21
-17.0
 31
0.0
  0
TEXT
  5
161
100
AcDbEntity
  8
SV
  6
CONTINUOUS
 62
     4
100
AcDbText
 10
111.650971
 20
-29.926937
 30
0.0
 40
3.0
  1
4.3
 50
90.000003
  7
MICROCADAM
100
AcDbText
  0
ENDBLK
  5
162
100
AcDbEntity
  8
0
100
AcDbBlockEnd
  0
BLOCK
  5
164
100
AcDbEntity
  8
SV
  6
CONTINUOUS
 62
     4
100
AcDbBlockBegin
  2
*D12
 70
     1
 10
0.0
 20
0.0
 30
0.0
  3
*D12
  1

  0
LINE
  5
165
100
AcDbEntity
  8
SV
  6
CONTINUOUS
 62
     4
100
AcDbLine
 10
104.519722
 20
-12.7
 30
0.0
 11
104.519722
 21
12.7
 31
0.0
  0
SOLID
  5
166
100
AcDbEntity
  8
SV
  6
CONTINUOUS
 62
     4
100
AcDbTrace
 10
103.936215
 20
-9.889739
 30
0.0
 11
104.519722
 21
-12.7
 31
0.0
 12
105.103237
 22
-9.88974
 32
0.0
 13
105.103237
 23
-9.88974
 33
0.0
  0
SOLID
  5
167
100
AcDbEntity
  8
SV
  6
CONTINUOUS
 62
     4
100
AcDbTrace
 10
105.103222
 20
9.889737
 30
0.0
 11
104.519722
 21
12.7
 31
0.0
 12
103.9362
 22
9.889742
 32
0.0
 13
103.9362
 23
9.889742
 33
0.0
  0
LINE
  5
168
100
AcDbEntity
  8
SV
  6
CONTINUOUS
 62
     4
100
AcDbLine
 10
120.264703
 20
-12.699993
 30
0.0
 11
102.233727
 21
-12.7
 31
0.0
  0
LINE
  5
169
100
AcDbEntity
  8
SV
  6
CONTINUOUS
 62
     4
100
AcDbLine
 10
120.944642
 20
12.700007
 30
0.0
 11
102.233727
 21
12.7
 31
0.0
  0
TEXT
  5
16A
100
AcDbEntity
  8
SV
  6
CONTINUOUS
 62
     4
100
AcDbText
 10
103.519722
 20
-4.445976
 30
0.0
 40
3.0
  1
25.4
 50
90.000003
  7
MICROCADAM
100
AcDbText
  0
ENDBLK
  5
16B
100
AcDbEntity
  8
0
100
AcDbBlockEnd
  0
BLOCK
  5
16D
100
AcDbEntity
  8
SV
  6
CONTINUOUS
 62
     4
100
AcDbBlockBegin
  2
*D13
 70
     1
 10
0.0
 20
0.0
 30
0.0
  3
*D13
  1

  0
LINE
  5
16E
100
AcDbEntity
  8
SV
  6
CONTINUOUS
 62
     4
100
AcDbLine
 10
139.65
 20
22.231422
 30
0.0
 11
156.35
 21
22.231405
 31
0.0
  0
SOLID
  5
16F
100
AcDbEntity
  8
SV
  6
CONTINUOUS
 62
     4
100
AcDbTrace
 10
143.189738
 20
21.647902
 30
0.0
 11
146.0
 21
22.231405
 31
0.0
 12
143.189741
 22
22.814924
 32
0.0
 13
143.189741
 23
22.814924
 33
0.0
  0
SOLID
  5
170
100
AcDbEntity
  8
SV
  6
CONTINUOUS
 62
     4
100
AcDbTrace
 10
152.81026
 20
22.814916
 30
0.0
 11
150.0
 21
22.231405
 31
0.0
 12
152.81026
 22
21.647894
 32
0.0
 13
152.81026
 23
21.647894
 33
0.0
  0
LINE
  5
171
100
AcDbEntity
  8
SV
  6
CONTINUOUS
 62
     4
100
AcDbLine
 10
150.0
 20
22.231405
 30
0.0
 11
158.473022
 21
22.231405
 31
0.0
  0
LINE
  5
172
100
AcDbEntity
  8
SV
  6
CONTINUOUS
 62
     4
100
AcDbLine
 10
146.000003
 20
0.94
 30
0.0
 11
146.0
 21
24.517405
 31
0.0
  0
LINE
  5
173
100
AcDbEntity
  8
SV
  6
CONTINUOUS
 62
     4
100
AcDbLine
 10
150.000003
 20
0.94
 30
0.0
 11
150.0
 21
24.517405
 31
0.0
  0
TEXT
  5
174
100
AcDbEntity
  8
SV
  6
CONTINUOUS
 62
     4
100
AcDbText
 10
156.473022
 20
23.231405
 30
0.0
 40
3.0
  1
4
  7
MICROCADAM
100
AcDbText
  0
ENDBLK
  5
175
100
AcDbEntity
  8
0
100
AcDbBlockEnd
  0
BLOCK
  5
177
100
AcDbEntity
  8
SV
  6
CONTINUOUS
 62
     4
100
AcDbBlockBegin
  2
*D14
 70
     1
 10
0.0
 20
0.0
 30
0.0
  3
*D14
  1

  0
LINE
  5
178
100
AcDbEntity
  8
SV
  6
CONTINUOUS
 62
     4
100
AcDbLine
 10
124.5
 20
34.014469
 30
0.0
 11
150.0
 21
34.014469
 31
0.0
  0
SOLID
  5
179
100
AcDbEntity
  8
SV
  6
CONTINUOUS
 62
     4
100
AcDbTrace
 10
127.31026
 20
34.59798
 30
0.0
 11
124.5
 21
34.014469
 31
0.0
 12
127.310257
 22
33.430943
 32
0.0
 13
127.310257
 23
33.430943
 33
0.0
  0
SOLID
  5
17A
100
AcDbEntity
  8
SV
  6
CONTINUOUS
 62
     4
100
AcDbTrace
 10
147.189738
 20
33.430965
 30
0.0
 11
150.0
 21
34.014469
 31
0.0
 12
147.189741
 22
34.597988
 32
0.0
 13
147.189741
 23
34.597988
 33
0.0
  0
LINE
  5
17B
100
AcDbEntity
  8
SV
  6
CONTINUOUS
 62
     4
100
AcDbLine
 10
124.500003
 20
19.54
 30
0.0
 11
124.5
 21
36.300472
 31
0.0
  0
LINE
  5
17C
100
AcDbEntity
  8
SV
  6
CONTINUOUS
 62
     4
100
AcDbLine
 10
150.000003
 20
19.54
 30
0.0
 11
150.0
 21
36.300472
 31
0.0
  0
TEXT
  5
17D
100
AcDbEntity
  8
SV
  6
CONTINUOUS
 62
     4
100
AcDbText
 10
131.307009
 20
35.614465
 30
0.0
 40
3.199994
  1
25.5
  7
MICROCADAM
100
AcDbText
  0
ENDBLK
  5
17E
100
AcDbEntity
  8
0
100
AcDbBlockEnd
  0
BLOCK
  5
180
100
AcDbEntity
  8
SV
  6
CONTINUOUS
 62
     4
100
AcDbBlockBegin
  2
*D15
 70
     1
 10
0.0
 20
0.0
 30
0.0
  3
*D15
  1

  0
LINE
  5
181
100
AcDbEntity
  8
SV
  6
CONTINUOUS
 62
     4
100
AcDbLine
 10
118.15
 20
-29.05011
 30
0.0
 11
140.85
 21
-29.050127
 31
0.0
  0
SOLID
  5
182
100
AcDbEntity
  8
SV
  6
CONTINUOUS
 62
     4
100
AcDbTrace
 10
121.689738
 20
-29.633631
 30
0.0
 11
124.5
 21
-29.050127
 31
0.0
 12
121.689741
 22
-28.466608
 32
0.0
 13
121.689741
 23
-28.466608
 33
0.0
  0
SOLID
  5
183
100
AcDbEntity
  8
SV
  6
CONTINUOUS
 62
     4
100
AcDbTrace
 10
137.31026
 20
-28.466616
 30
0.0
 11
134.5
 21
-29.050127
 31
0.0
 12
137.31026
 22
-29.633638
 32
0.0
 13
137.31026
 23
-29.633638
 33
0.0
  0
LINE
  5
184
100
AcDbEntity
  8
SV
  6
CONTINUOUS
 62
     4
100
AcDbLine
 10
134.5
 20
-29.050127
 30
0.0
 11
149.568466
 21
-29.050127
 31
0.0
  0
LINE
  5
185
100
AcDbEntity
  8
SV
  6
CONTINUOUS
 62
     4
100
AcDbLine
 10
124.49999
 20
-19.54
 30
0.0
 11
124.5
 21
-31.336126
 31
0.0
  0
LINE
  5
186
100
AcDbEntity
  8
SV
  6
CONTINUOUS
 62
     4
100
AcDbLine
 10
134.49999
 20
-24.544751
 30
0.0
 11
134.5
 21
-31.336126
 31
0.0
  0
TEXT
  5
187
100
AcDbEntity
  8
SV
  6
CONTINUOUS
 62
     4
100
AcDbText
 10
144.082473
 20
-27.450131
 30
0.0
 40
3.199994
  1
10
  7
MICROCADAM
100
AcDbText
  0
ENDBLK
  5
188
100
AcDbEntity
  8
0
100
AcDbBlockEnd
  0
BLOCK
  5
18A
100
AcDbEntity
  8
EV
  6
CONTINUOUS
 62
     4
100
AcDbBlockBegin
  2
*D16
 70
     1
 10
0.0
 20
0.0
 30
0.0
  3
*D16
  1

  0
LINE
  5
18B
100
AcDbEntity
  8
EV
  6
CONTINUOUS
 62
     4
100
AcDbLine
 10
8.713491
 20
-92.635513
 30
0.0
 11
-8.713494
 21
-95.732314
 31
0.0
  0
SOLID
  5
18C
100
AcDbEntity
  8
EV
  6
CONTINUOUS
 62
     4
100
AcDbTrace
 10
5.126256
 20
-92.680311
 30
0.0
 11
2.461437
 21
-93.746513
 31
0.0
 12
5.330442
 22
-93.829332
 32
0.0
 13
5.330442
 23
-93.829332
 33
0.0
  0
SOLID
  5
18D
100
AcDbEntity
  8
EV
  6
CONTINUOUS
 62
     4
100
AcDbTrace
 10
-5.126259
 20
-95.687526
 30
0.0
 11
-2.461437
 21
-94.62133
 31
0.0
 12
-5.330442
 22
-94.538504
 32
0.0
 13
-5.330442
 23
-94.538504
 33
0.0
  0
LINE
  5
18E
100
AcDbEntity
  8
EV
  6
CONTINUOUS
 62
     4
100
AcDbLine
 10
-2.461437
 20
-94.62133
 30
0.0
 11
-23.908237
 21
-98.432549
 31
0.0
  0
TEXT
  5
18F
100
AcDbEntity
  8
EV
  6
CONTINUOUS
 62
     4
100
AcDbText
 10
-24.083318
 20
-97.449653
 30
0.0
 40
3.0
  1
%%C 5
 50
10.1
  7
MICROCADAM
100
AcDbText
  0
ENDBLK
  5
190
100
AcDbEntity
  8
0
100
AcDbBlockEnd
  0
BLOCK
  5
192
100
AcDbEntity
  8
EV
  6
CONTINUOUS
 62
     4
100
AcDbBlockBegin
  2
*D17
 70
     1
 10
0.0
 20
0.0
 30
0.0
  3
*D17
  1

  0
LINE
  5
193
100
AcDbEntity
  8
EV
  6
CONTINUOUS
 62
     4
100
AcDbLine
 10
-7.0
 20
-66.360229
 30
0.0
 11
7.0
 21
-66.360229
 31
0.0
  0
SOLID
  5
194
100
AcDbEntity
  8
EV
  6
CONTINUOUS
 62
     4
100
AcDbTrace
 10
-4.18974
 20
-65.776718
 30
0.0
 11
-7.0
 21
-66.360229
 31
0.0
 12
-4.189743
 22
-66.943756
 32
0.0
 13
-4.189743
 23
-66.943756
 33
0.0
  0
SOLID
  5
195
100
AcDbEntity
  8
EV
  6
CONTINUOUS
 62
     4
100
AcDbTrace
 10
4.189738
 20
-66.943733
 30
0.0
 11
7.0
 21
-66.360229
 31
0.0
 12
4.189741
 22
-65.776711
 32
0.0
 13
4.189741
 23
-65.776711
 33
0.0
  0
LINE
  5
196
100
AcDbEntity
  8
EV
  6
CONTINUOUS
 62
     4
100
AcDbLine
 10
-6.999997
 20
-75.643922
 30
0.0
 11
-7.0
 21
-64.074226
 31
0.0
  0
LINE
  5
197
100
AcDbEntity
  8
EV
  6
CONTINUOUS
 62
     4
100
AcDbLine
 10
7.000003
 20
-75.643922
 30
0.0
 11
7.0
 21
-64.074226
 31
0.0
  0
TEXT
  5
198
100
AcDbEntity
  8
EV
  6
CONTINUOUS
 62
     4
100
AcDbText
 10
-2.5
 20
-65.360229
 30
0.0
 40
3.0
  1
14
  7
MICROCADAM
100
AcDbText
  0
ENDBLK
  5
199
100
AcDbEntity
  8
0
100
AcDbBlockEnd
  0
BLOCK
  5
19B
100
AcDbEntity
  8
EV
  6
CONTINUOUS
 62
     4
100
AcDbBlockBegin
  2
*D18
 70
     1
 10
0.0
 20
0.0
 30
0.0
  3
*D18
  1

  0
LINE
  5
19C
100
AcDbEntity
  8
EV
  6
CONTINUOUS
 62
     4
100
AcDbLine
 10
-0.65
 20
-74.749657
 30
0.0
 11
-19.85
 21
-74.74964
 31
0.0
  0
SOLID
  5
19D
100
AcDbEntity
  8
EV
  6
CONTINUOUS
 62
     4
100
AcDbTrace
 10
-4.18974
 20
-74.166146
 30
0.0
 11
-7.0
 21
-74.749657
 31
0.0
 12
-4.18974
 22
-75.333168
 32
0.0
 13
-4.18974
 23
-75.333168
 33
0.0
  0
SOLID
  5
19E
100
AcDbEntity
  8
EV
  6
CONTINUOUS
 62
     4
100
AcDbTrace
 10
-16.310262
 20
-75.33316
 30
0.0
 11
-13.5
 21
-74.749657
 31
0.0
 12
-16.310259
 22
-74.166138
 32
0.0
 13
-16.310259
 23
-74.166138
 33
0.0
  0
LINE
  5
19F
100
AcDbEntity
  8
EV
  6
CONTINUOUS
 62
     4
100
AcDbLine
 10
-13.5
 20
-74.749657
 30
0.0
 11
-23.191111
 21
-74.749657
 31
0.0
  0
LINE
  5
1A0
100
AcDbEntity
  8
EV
  6
CONTINUOUS
 62
     4
100
AcDbLine
 10
-6.999997
 20
-103.143922
 30
0.0
 11
-7.0
 21
-72.463654
 31
0.0
  0
LINE
  5
1A1
100
AcDbEntity
  8
EV
  6
CONTINUOUS
 62
     4
100
AcDbLine
 10
-13.499997
 20
-103.143922
 30
0.0
 11
-13.5
 21
-72.463654
 31
0.0
  0
TEXT
  5
1A2
100
AcDbEntity
  8
EV
  6
CONTINUOUS
 62
     4
100
AcDbText
 10
-23.791111
 20
-73.749657
 30
0.0
 40
3.0
  1
6.5
  7
MICROCADAM
100
AcDbText
  0
ENDBLK
  5
1A3
100
AcDbEntity
  8
0
100
AcDbBlockEnd
  0
BLOCK
  5
1A5
100
AcDbEntity
  8
EV
  6
CONTINUOUS
 62
     4
100
AcDbBlockBegin
  2
*D19
 70
     1
 10
0.0
 20
0.0
 30
0.0
  3
*D19
  1

  0
LINE
  5
1A6
100
AcDbEntity
  8
EV
  6
CONTINUOUS
 62
     4
100
AcDbLine
 10
19.85
 20
-74.749657
 30
0.0
 11
0.65
 21
-74.74964
 31
0.0
  0
SOLID
  5
1A7
100
AcDbEntity
  8
EV
  6
CONTINUOUS
 62
     4
100
AcDbTrace
 10
16.31026
 20
-74.166146
 30
0.0
 11
13.5
 21
-74.749657
 31
0.0
 12
16.31026
 22
-75.333168
 32
0.0
 13
16.31026
 23
-75.333168
 33
0.0
  0
SOLID
  5
1A8
100
AcDbEntity
  8
EV
  6
CONTINUOUS
 62
     4
100
AcDbTrace
 10
4.189738
 20
-75.33316
 30
0.0
 11
7.0
 21
-74.749657
 31
0.0
 12
4.189741
 22
-74.166138
 32
0.0
 13
4.189741
 23
-74.166138
 33
0.0
  0
LINE
  5
1A9
100
AcDbEntity
  8
EV
  6
CONTINUOUS
 62
     4
100
AcDbLine
 10
13.5
 20
-74.749657
 30
0.0
 11
22.131781
 21
-74.749657
 31
0.0
  0
LINE
  5
1AA
100
AcDbEntity
  8
EV
  6
CONTINUOUS
 62
     4
100
AcDbLine
 10
13.500003
 20
-103.143922
 30
0.0
 11
13.5
 21
-72.463654
 31
0.0
  0
LINE
  5
1AB
100
AcDbEntity
  8
EV
  6
CONTINUOUS
 62
     4
100
AcDbLine
 10
7.000003
 20
-103.143922
 30
0.0
 11
7.0
 21
-72.463654
 31
0.0
  0
TEXT
  5
1AC
100
AcDbEntity
  8
EV
  6
CONTINUOUS
 62
     4
100
AcDbText
 10
14.731781
 20
-73.749657
 30
0.0
 40
3.0
  1
6.5
  7
MICROCADAM
100
AcDbText
  0
ENDBLK
  5
1AD
100
AcDbEntity
  8
0
100
AcDbBlockEnd
  0
ENDSEC
  0
SECTION
  2
ENTITIES
  0
LINE
  5
38
100
AcDbEntity
  8
PV
  6
CONTINUOUS
 62
     3
100
AcDbLine
 10
13.5
 20
-17.0
 30
0.0
 11
-13.5
 21
-17.0
 31
0.0
  0
LINE
  5
39
100
AcDbEntity
  8
PV
  6
CONTINUOUS
 62
     3
100
AcDbLine
 10
13.5
 20
-17.0
 30
0.0
 11
13.5
 21
17.0
 31
0.0
  0
LINE
  5
3A
100
AcDbEntity
  8
PV
  6
CONTINUOUS
 62
     3
100
AcDbLine
 10
13.5
 20
17.0
 30
0.0
 11
-13.5
 21
17.0
 31
0.0
  0
LINE
  5
3B
100
AcDbEntity
  8
PV
  6
CONTINUOUS
 62
     3
100
AcDbLine
 10
-13.5
 20
-17.0
 30
0.0
 11
-13.5
 21
17.0
 31
0.0
  0
LINE
  5
3C
100
AcDbEntity
  8
PV
  6
DASHED
 62
     4
100
AcDbLine
 10
7.0
 20
-17.0
 30
0.0
 11
7.0
 21
17.0
 31
0.0
  0
LINE
  5
3D
100
AcDbEntity
  8
PV
  6
DASHED
 62
     4
100
AcDbLine
 10
-7.0
 20
-17.0
 30
0.0
 11
-7.0
 21
17.0
 31
0.0
  0
LINE
  5
3E
100
AcDbEntity
  8
PV
  6
DASHED
 62
     4
100
AcDbLine
 10
2.5
 20
-17.0
 30
0.0
 11
2.5
 21
-7.0
 31
0.0
  0
LINE
  5
3F
100
AcDbEntity
  8
PV
  6
DASHED
 62
     4
100
AcDbLine
 10
2.5
 20
-7.0
 30
0.0
 11
-2.5
 21
-7.0
 31
0.0
  0
LINE
  5
40
100
AcDbEntity
  8
PV
  6
CENTER
 62
     4
100
AcDbLine
 10
0.0
 20
-17.0
 30
0.0
 11
0.0
 21
-7.0
 31
0.0
  0
LINE
  5
41
100
AcDbEntity
  8
PV
  6
DASHED
 62
     4
100
AcDbLine
 10
-2.5
 20
-17.0
 30
0.0
 11
-2.5
 21
-7.0
 31
0.0
  0
LINE
  5
42
100
AcDbEntity
  8
PV
  6
DASHED
 62
     4
100
AcDbLine
 10
2.5
 20
17.0
 30
0.0
 11
2.5
 21
7.0
 31
0.0
  0
LINE
  5
43
100
AcDbEntity
  8
PV
  6
DASHED
 62
     4
100
AcDbLine
 10
2.5
 20
7.0
 30
0.0
 11
-2.5
 21
7.0
 31
0.0
  0
LINE
  5
44
100
AcDbEntity
  8
PV
  6
CENTER
 62
     4
100
AcDbLine
 10
0.0
 20
17.0
 30
0.0
 11
0.0
 21
3.713167
 31
0.0
  0
LINE
  5
45
100
AcDbEntity
  8
PV
  6
DASHED
 62
     4
100
AcDbLine
 10
-2.5
 20
17.0
 30
0.0
 11
-2.5
 21
7.0
 31
0.0
  0
LINE
  5
46
100
AcDbEntity
  8
PV
  6
CENTER
 62
     4
100
AcDbLine
 10
-16.571726
 20
12.5
 30
0.0
 11
16.035372
 21
12.5
 31
0.0
  0
LINE
  5
47
100
AcDbEntity
  8
PV
  6
CENTER
 62
     4
100
AcDbLine
 10
-16.339233
 20
-12.5
 30
0.0
 11
16.209742
 21
-12.5
 31
0.0
  0
LINE
  5
48
100
AcDbEntity
  8
PV
  6
CENTER
 62
     4
100
AcDbLine
 10
-16.513603
 20
0.0
 30
0.0
 11
15.919127
 21
0.0
 31
0.0
  0
LINE
  5
49
100
AcDbEntity
  8
PV
  6
CENTER
 62
     4
100
AcDbLine
 10
-10.5
 20
-19.787025
 30
0.0
 11
-10.5
 21
19.85465
 31
0.0
  0
LINE
  5
4A
100
AcDbEntity
  8
PV
  6
CENTER
 62
     4
100
AcDbLine
 10
10.5
 20
-19.787025
 30
0.0
 11
10.5
 21
20.19541
 31
0.0
  0
LINE
  5
4B
100
AcDbEntity
  8
PV
  6
DASHED
 62
     4
100
AcDbLine
 10
-2.5
 20
7.0
 30
0.0
 11
0.0
 21
5.556624
 31
0.0
  0
LINE
  5
4C
100
AcDbEntity
  8
PV
  6
DASHED
 62
     4
100
AcDbLine
 10
0.0
 20
-5.556624
 30
0.0
 11
2.5
 21
-7.0
 31
0.0
  0
LINE
  5
4D
100
AcDbEntity
  8
PV
  6
DASHED
 62
     4
100
AcDbLine
 10
-2.5
 20
-7.0
 30
0.0
 11
0.0
 21
-5.556624
 31
0.0
  0
LINE
  5
4E
100
AcDbEntity
  8
PV
  6
DASHED
 62
     4
100
AcDbLine
 10
0.0
 20
5.556624
 30
0.0
 11
2.5
 21
7.0
 31
0.0
  0
CIRCLE
  5
4F
100
AcDbEntity
  8
PV
  6
CONTINUOUS
 62
     3
100
AcDbCircle
 10
-10.5
 20
0.0
 30
0.0
 40
1.6
  0
CIRCLE
  5
50
100
AcDbEntity
  8
PV
  6
CONTINUOUS
 62
     3
100
AcDbCircle
 10
10.5
 20
0.0
 30
0.0
 40
1.6
  0
CIRCLE
  5
51
100
AcDbEntity
  8
PV
  6
CONTINUOUS
 62
     3
100
AcDbCircle
 10
10.5
 20
12.5
 30
0.0
 40
1.6
  0
CIRCLE
  5
52
100
AcDbEntity
  8
PV
  6
CONTINUOUS
 62
     3
100
AcDbCircle
 10
10.5
 20
-12.5
 30
0.0
 40
1.6
  0
CIRCLE
  5
53
100
AcDbEntity
  8
PV
  6
CONTINUOUS
 62
     3
100
AcDbCircle
 10
-10.5
 20
12.5
 30
0.0
 40
1.6
  0
CIRCLE
  5
54
100
AcDbEntity
  8
PV
  6
CONTINUOUS
 62
     3
100
AcDbCircle
 10
-10.5
 20
-12.5
 30
0.0
 40
1.6
  0
ARC
  5
55
100
AcDbEntity
  8
PV
  6
DASHED
 62
     4
100
AcDbCircle
 10
0.0
 20
12.7
 30
0.0
 40
1.25
100
AcDbArc
 50
90.000003
 51
360.000013
  0
CIRCLE
  5
56
100
AcDbEntity
  8
PV
  6
DASHED
 62
     4
100
AcDbCircle
 10
0.0
 20
12.7
 30
0.0
 40
1.0
  0
CIRCLE
  5
57
100
AcDbEntity
  8
PV
  6
DASHED
 62
     4
100
AcDbCircle
 10
0.0
 20
-12.7
 30
0.0
 40
1.0
  0
ARC
  5
58
100
AcDbEntity
  8
PV
  6
DASHED
 62
     4
100
AcDbCircle
 10
0.0
 20
-12.7
 30
0.0
 40
1.25
100
AcDbArc
 50
89.735518
 51
360.000013
  0
LINE
  5
59
100
AcDbEntity
  8
SV
  6
CONTINUOUS
 62
     3
100
AcDbLine
 10
150.0
 20
-17.0
 30
0.0
 11
150.0
 21
17.0
 31
0.0
  0
LINE
  5
5A
100
AcDbEntity
  8
SV
  6
CONTINUOUS
 62
     3
100
AcDbLine
 10
150.0
 20
-17.0
 30
0.0
 11
124.5
 21
-17.0
 31
0.0
  0
LINE
  5
5B
100
AcDbEntity
  8
SV
  6
CONTINUOUS
 62
     3
100
AcDbLine
 10
146.0
 20
-17.0
 30
0.0
 11
146.0
 21
17.0
 31
0.0
  0
LINE
  5
5C
100
AcDbEntity
  8
SV
  6
CONTINUOUS
 62
     3
100
AcDbLine
 10
124.5
 20
17.0
 30
0.0
 11
150.0
 21
17.0
 31
0.0
  0
LINE
  5
5D
100
AcDbEntity
  8
SV
  6
CONTINUOUS
 62
     3
100
AcDbLine
 10
124.5
 20
-17.0
 30
0.0
 11
124.5
 21
17.0
 31
0.0
  0
LINE
  5
5E
100
AcDbEntity
  8
SV
  6
CENTER
 62
     4
100
AcDbLine
 10
141.92804
 20
0.0
 30
0.0
 11
155.866837
 21
0.0
 31
0.0
  0
LINE
  5
5F
100
AcDbEntity
  8
SV
  6
DASHED
 62
     4
100
AcDbLine
 10
146.0
 20
-1.6
 30
0.0
 11
150.0
 21
-1.6
 31
0.0
  0
LINE
  5
60
100
AcDbEntity
  8
SV
  6
DASHED
 62
     4
100
AcDbLine
 10
146.0
 20
1.6
 30
0.0
 11
150.0
 21
1.6
 31
0.0
  0
LINE
  5
61
100
AcDbEntity
  8
SV
  6
CENTER
 62
     4
100
AcDbLine
 10
142.013031
 20
12.5
 30
0.0
 11
156.206802
 21
12.5
 31
0.0
  0
LINE
  5
62
100
AcDbEntity
  8
SV
  6
DASHED
 62
     4
100
AcDbLine
 10
146.0
 20
10.9
 30
0.0
 11
150.0
 21
10.9
 31
0.0
  0
LINE
  5
63
100
AcDbEntity
  8
SV
  6
DASHED
 62
     4
100
AcDbLine
 10
146.0
 20
14.1
 30
0.0
 11
150.0
 21
14.1
 31
0.0
  0
LINE
  5
64
100
AcDbEntity
  8
SV
  6
CENTER
 62
     4
100
AcDbLine
 10
142.013031
 20
-12.5
 30
0.0
 11
157.056732
 21
-12.5
 31
0.0
  0
LINE
  5
65
100
AcDbEntity
  8
SV
  6
DASHED
 62
     4
100
AcDbLine
 10
146.0
 20
-14.1
 30
0.0
 11
150.0
 21
-14.1
 31
0.0
  0
LINE
  5
66
100
AcDbEntity
  8
SV
  6
DASHED
 62
     4
100
AcDbLine
 10
146.0
 20
-10.9
 30
0.0
 11
150.0
 21
-10.9
 31
0.0
  0
LINE
  5
67
100
AcDbEntity
  8
SV
  6
CENTER
 62
     4
100
AcDbLine
 10
120.804703
 20
-12.7
 30
0.0
 11
135.253448
 21
-12.7
 31
0.0
  0
LINE
  5
68
100
AcDbEntity
  8
SV
  6
DASHED
 62
     4
100
AcDbLine
 10
124.5
 20
-13.7
 30
0.0
 11
132.0
 21
-13.7
 31
0.0
  0
LINE
  5
69
100
AcDbEntity
  8
SV
  6
DASHED
 62
     4
100
AcDbLine
 10
124.5
 20
-11.7
 30
0.0
 11
132.0
 21
-11.7
 31
0.0
  0
LINE
  5
6A
100
AcDbEntity
  8
SV
  6
CENTER
 62
     4
100
AcDbLine
 10
134.5
 20
-22.004751
 30
0.0
 11
134.5
 21
-2.201471
 31
0.0
  0
LINE
  5
6B
100
AcDbEntity
  8
SV
  6
DASHED
 62
     4
100
AcDbLine
 10
132.0
 20
-7.0
 30
0.0
 11
137.0
 21
-7.0
 31
0.0
  0
LINE
  5
6C
100
AcDbEntity
  8
SV
  6
DASHED
 62
     4
100
AcDbLine
 10
137.0
 20
-17.0
 30
0.0
 11
137.0
 21
-7.0
 31
0.0
  0
LINE
  5
6D
100
AcDbEntity
  8
SV
  6
DASHED
 62
     4
100
AcDbLine
 10
132.0
 20
-7.0
 30
0.0
 11
132.0
 21
-11.7
 31
0.0
  0
LINE
  5
6E
100
AcDbEntity
  8
SV
  6
DASHED
 62
     4
100
AcDbLine
 10
132.0
 20
-17.0
 30
0.0
 11
132.0
 21
-13.7
 31
0.0
  0
LINE
  5
6F
100
AcDbEntity
  8
SV
  6
CENTER
 62
     4
100
AcDbLine
 10
121.484642
 20
12.7
 30
0.0
 11
135.508423
 21
12.7
 31
0.0
  0
LINE
  5
70
100
AcDbEntity
  8
SV
  6
DASHED
 62
     4
100
AcDbLine
 10
124.5
 20
11.7
 30
0.0
 11
132.0
 21
11.7
 31
0.0
  0
LINE
  5
71
100
AcDbEntity
  8
SV
  6
DASHED
 62
     4
100
AcDbLine
 10
124.5
 20
13.7
 30
0.0
 11
132.0
 21
13.7
 31
0.0
  0
LINE
  5
72
100
AcDbEntity
  8
SV
  6
CENTER
 62
     4
100
AcDbLine
 10
134.5
 20
22.446386
 30
0.0
 11
134.5
 21
1.368219
 31
0.0
  0
LINE
  5
73
100
AcDbEntity
  8
SV
  6
DASHED
 62
     4
100
AcDbLine
 10
137.0
 20
7.0
 30
0.0
 11
132.0
 21
7.0
 31
0.0
  0
LINE
  5
74
100
AcDbEntity
  8
SV
  6
DASHED
 62
     4
100
AcDbLine
 10
132.0
 20
7.0
 30
0.0
 11
132.0
 21
11.7
 31
0.0
  0
LINE
  5
75
100
AcDbEntity
  8
SV
  6
DASHED
 62
     4
100
AcDbLine
 10
137.0
 20
17.0
 30
0.0
 11
137.0
 21
7.0
 31
0.0
  0
LINE
  5
76
100
AcDbEntity
  8
SV
  6
DASHED
 62
     4
100
AcDbLine
 10
132.0
 20
17.0
 30
0.0
 11
132.0
 21
13.7
 31
0.0
  0
LINE
  5
77
100
AcDbEntity
  8
SV
  6
DASHED
 62
     4
100
AcDbLine
 10
132.0
 20
7.0
 30
0.0
 11
134.5
 21
5.556624
 31
0.0
  0
LINE
  5
78
100
AcDbEntity
  8
SV
  6
DASHED
 62
     4
100
AcDbLine
 10
137.0
 20
-7.0
 30
0.0
 11
134.5
 21
-5.556624
 31
0.0
  0
LINE
  5
79
100
AcDbEntity
  8
SV
  6
DASHED
 62
     4
100
AcDbLine
 10
132.0
 20
-7.0
 30
0.0
 11
134.5
 21
-5.556624
 31
0.0
  0
LINE
  5
7A
100
AcDbEntity
  8
SV
  6
DASHED
 62
     4
100
AcDbLine
 10
137.0
 20
7.0
 30
0.0
 11
134.5
 21
5.556624
 31
0.0
  0
POLYLINE
  5
7B
100
AcDbEntity
  8
SV
  6
DASHED
 62
     4
100
AcDb2dPolyline
 66
     1
 10
0.0
 20
0.0
 30
0.0
  0
VERTEX
  5
7C
100
AcDbEntity
  8
SV
  6
DASHED
 62
     4
100
AcDbVertex
100
AcDb2dVertex
 10
132.0
 20
-13.7
 30
0.0
  0
VERTEX
  5
7D
100
AcDbEntity
  8
SV
  6
DASHED
 62
     4
100
AcDbVertex
100
AcDb2dVertex
 10
132.036665
 20
-13.605154
 30
0.0
  0
VERTEX
  5
7E
100
AcDbEntity
  8
SV
  6
DASHED
 62
     4
100
AcDbVertex
100
AcDb2dVertex
 10
132.070084
 20
-13.509017
 30
0.0
  0
VERTEX
  5
7F
100
AcDbEntity
  8
SV
  6
DASHED
 62
     4
100
AcDbVertex
100
AcDb2dVertex
 10
132.171672
 20
-13.109672
 30
0.0
  0
VERTEX
  5
80
100
AcDbEntity
  8
SV
  6
DASHED
 62
     4
100
AcDbVertex
100
AcDb2dVertex
 10
132.20871
 20
-12.7
 30
0.0
  0
VERTEX
  5
81
100
AcDbEntity
  8
SV
  6
DASHED
 62
     4
100
AcDbVertex
100
AcDb2dVertex
 10
132.189159
 20
-12.404086
 30
0.0
  0
VERTEX
  5
82
100
AcDbEntity
  8
SV
  6
DASHED
 62
     4
100
AcDbVertex
100
AcDb2dVertex
 10
132.134521
 20
-12.112215
 30
0.0
  0
VERTEX
  5
83
100
AcDbEntity
  8
SV
  6
DASHED
 62
     4
100
AcDbVertex
100
AcDb2dVertex
 10
132.075454
 20
-11.903259
 30
0.0
  0
VERTEX
  5
84
100
AcDbEntity
  8
SV
  6
DASHED
 62
     4
100
AcDbVertex
100
AcDb2dVertex
 10
132.0
 20
-11.7
 30
0.0
  0
SEQEND
  5
85
100
AcDbEntity
  8
SV
  6
DASHED
 62
     4
  0
POLYLINE
  5
86
100
AcDbEntity
  8
SV
  6
DASHED
 62
     4
100
AcDb2dPolyline
 66
     1
 10
0.0
 20
0.0
 30
0.0
  0
VERTEX
  5
87
100
AcDbEntity
  8
SV
  6
DASHED
 62
     4
100
AcDbVertex
100
AcDb2dVertex
 10
132.0
 20
11.7
 30
0.0
  0
VERTEX
  5
88
100
AcDbEntity
  8
SV
  6
DASHED
 62
     4
100
AcDbVertex
100
AcDb2dVertex
 10
132.036665
 20
11.794845
 30
0.0
  0
VERTEX
  5
89
100
AcDbEntity
  8
SV
  6
DASHED
 62
     4
100
AcDbVertex
100
AcDb2dVertex
 10
132.070084
 20
11.890983
 30
0.0
  0
VERTEX
  5
8A
100
AcDbEntity
  8
SV
  6
DASHED
 62
     4
100
AcDbVertex
100
AcDb2dVertex
 10
132.171672
 20
12.290327
 30
0.0
  0
VERTEX
  5
8B
100
AcDbEntity
  8
SV
  6
DASHED
 62
     4
100
AcDbVertex
100
AcDb2dVertex
 10
132.20871
 20
12.7
 30
0.0
  0
VERTEX
  5
8C
100
AcDbEntity
  8
SV
  6
DASHED
 62
     4
100
AcDbVertex
100
AcDb2dVertex
 10
132.189159
 20
12.995914
 30
0.0
  0
VERTEX
  5
8D
100
AcDbEntity
  8
SV
  6
DASHED
 62
     4
100
AcDbVertex
100
AcDb2dVertex
 10
132.134521
 20
13.287786
 30
0.0
  0
VERTEX
  5
8E
100
AcDbEntity
  8
SV
  6
DASHED
 62
     4
100
AcDbVertex
100
AcDb2dVertex
 10
132.075454
 20
13.496741
 30
0.0
  0
VERTEX
  5
8F
100
AcDbEntity
  8
SV
  6
DASHED
 62
     4
100
AcDbVertex
100
AcDb2dVertex
 10
132.0
 20
13.7
 30
0.0
  0
SEQEND
  5
90
100
AcDbEntity
  8
SV
  6
DASHED
 62
     4
  0
LINE
  5
91
100
AcDbEntity
  8
EV
  6
CONTINUOUS
 62
     3
100
AcDbLine
 10
-13.5
 20
-109.683922
 30
0.0
 11
13.5
 21
-109.683922
 31
0.0
  0
LINE
  5
92
100
AcDbEntity
  8
EV
  6
CONTINUOUS
 62
     3
100
AcDbLine
 10
-13.5
 20
-109.683922
 30
0.0
 11
-13.5
 21
-105.683922
 31
0.0
  0
LINE
  5
93
100
AcDbEntity
  8
EV
  6
CONTINUOUS
 62
     3
100
AcDbLine
 10
13.5
 20
-109.683922
 30
0.0
 11
13.5
 21
-105.683922
 31
0.0
  0
LINE
  5
94
100
AcDbEntity
  8
EV
  6
CONTINUOUS
 62
     3
100
AcDbLine
 10
13.5
 20
-105.683922
 30
0.0
 11
7.0
 21
-105.683922
 31
0.0
  0
LINE
  5
95
100
AcDbEntity
  8
EV
  6
CONTINUOUS
 62
     3
100
AcDbLine
 10
-7.0
 20
-105.683922
 30
0.0
 11
-13.5
 21
-105.683922
 31
0.0
  0
LINE
  5
96
100
AcDbEntity
  8
EV
  6
CONTINUOUS
 62
     3
100
AcDbLine
 10
-7.0
 20
-105.683922
 30
0.0
 11
-7.0
 21
-84.183922
 31
0.0
  0
LINE
  5
97
100
AcDbEntity
  8
EV
  6
CONTINUOUS
 62
     3
100
AcDbLine
 10
7.0
 20
-105.683922
 30
0.0
 11
7.0
 21
-84.183922
 31
0.0
  0
LINE
  5
98
100
AcDbEntity
  8
EV
  6
CONTINUOUS
 62
     3
100
AcDbLine
 10
7.0
 20
-84.183922
 30
0.0
 11
-7.0
 21
-84.183922
 31
0.0
  0
LINE
  5
99
100
AcDbEntity
  8
EV
  6
DASHED
 62
     4
100
AcDbLine
 10
-8.9
 20
-105.683922
 30
0.0
 11
-8.9
 21
-109.683922
 31
0.0
  0
LINE
  5
9A
100
AcDbEntity
  8
EV
  6
CENTER
 62
     4
100
AcDbLine
 10
-10.5
 20
-102.015739
 30
0.0
 11
-10.5
 21
-112.357162
 31
0.0
  0
LINE
  5
9B
100
AcDbEntity
  8
EV
  6
DASHED
 62
     4
100
AcDbLine
 10
-12.1
 20
-105.683922
 30
0.0
 11
-12.1
 21
-109.683922
 31
0.0
  0
LINE
  5
9C
100
AcDbEntity
  8
EV
  6
DASHED
 62
     4
100
AcDbLine
 10
12.1
 20
-105.683922
 30
0.0
 11
12.1
 21
-109.683922
 31
0.0
  0
LINE
  5
9D
100
AcDbEntity
  8
EV
  6
CENTER
 62
     4
100
AcDbLine
 10
10.5
 20
-101.920868
 30
0.0
 11
10.5
 21
-112.736664
 31
0.0
  0
LINE
  5
9E
100
AcDbEntity
  8
EV
  6
DASHED
 62
     4
100
AcDbLine
 10
8.9
 20
-105.683922
 30
0.0
 11
8.9
 21
-109.683922
 31
0.0
  0
LINE
  5
9F
100
AcDbEntity
  8
EV
  6
DASHED
 62
     4
100
AcDbLine
 10
1.0
 20
-84.183922
 30
0.0
 11
1.0
 21
-91.892632
 31
0.0
  0
LINE
  5
A0
100
AcDbEntity
  8
EV
  6
CENTER
 62
     4
100
AcDbLine
 10
0.0
 20
-79.902161
 30
0.0
 11
0.0
 21
-98.497734
 31
0.0
  0
LINE
  5
A1
100
AcDbEntity
  8
EV
  6
DASHED
 62
     4
100
AcDbLine
 10
-1.0
 20
-84.183922
 30
0.0
 11
-1.0
 21
-91.892632
 31
0.0
  0
CIRCLE
  5
A2
100
AcDbEntity
  8
EV
  6
CONTINUOUS
 62
     3
100
AcDbCircle
 10
0.0
 20
-94.183922
 30
0.0
 40
2.5
  0
POLYLINE
  5
A3
100
AcDbEntity
  8
EV
  6
CONTINUOUS
 62
    24
100
AcDb2dPolyline
 66
     1
 10
0.0
 20
0.0
 30
0.0
  0
VERTEX
  5
A4
100
AcDbEntity
  8
EV
  6
CONTINUOUS
 62
    24
100
AcDbVertex
100
AcDb2dVertex
 10
-1.0
 20
-93.892632
 30
0.0
  0
VERTEX
  5
A5
100
AcDbEntity
  8
EV
  6
CONTINUOUS
 62
    24
100
AcDbVertex
100
AcDb2dVertex
 10
-0.797703
 20
-93.812835
 30
0.0
  0
VERTEX
  5
A6
100
AcDbEntity
  8
EV
  6
CONTINUOUS
 62
    24
100
AcDbVertex
100
AcDb2dVertex
 10
-0.587785
 20
-93.754005
 30
0.0
  0
VERTEX
  5
A7
100
AcDbEntity
  8
EV
  6
CONTINUOUS
 62
    24
100
AcDbVertex
100
AcDb2dVertex
 10
-0.295827
 20
-93.702015
 30
0.0
  0
VERTEX
  5
A8
100
AcDbEntity
  8
EV
  6
CONTINUOUS
 62
    24
100
AcDbVertex
100
AcDb2dVertex
 10
0.0
 20
-93.683922
 30
0.0
  0
VERTEX
  5
A9
100
AcDbEntity
  8
EV
  6
CONTINUOUS
 62
    24
100
AcDbVertex
100
AcDb2dVertex
 10
0.410039
 20
-93.718118
 30
0.0
  0
VERTEX
  5
AA
100
AcDbEntity
  8
EV
  6
CONTINUOUS
 62
    24
100
AcDbVertex
100
AcDb2dVertex
 10
0.809017
 20
-93.818443
 30
0.0
  0
VERTEX
  5
AB
100
AcDbEntity
  8
EV
  6
CONTINUOUS
 62
    24
100
AcDbVertex
100
AcDb2dVertex
 10
0.905437
 20
-93.853287
 30
0.0
  0
VERTEX
  5
AC
100
AcDbEntity
  8
EV
  6
CONTINUOUS
 62
    24
100
AcDbVertex
100
AcDb2dVertex
 10
1.0
 20
-93.892632
 30
0.0
  0
SEQEND
  5
AD
100
AcDbEntity
  8
EV
  6
CONTINUOUS
 62
    24
  0
POLYLINE
  5
AE
100
AcDbEntity
  8
EV
  6
CONTINUOUS
 62
    24
100
AcDb2dPolyline
 66
     1
 10
0.0
 20
0.0
 30
0.0
  0
VERTEX
  5
AF
100
AcDbEntity
  8
EV
  6
CONTINUOUS
 62
    24
100
AcDbVertex
100
AcDb2dVertex
 10
-1.0
 20
-93.892632
 30
0.0
  0
VERTEX
  5
B0
100
AcDbEntity
  8
EV
  6
CONTINUOUS
 62
    24
100
AcDbVertex
100
AcDb2dVertex
 10
-0.905437
 20
-93.853287
 30
0.0
  0
VERTEX
  5
B1
100
AcDbEntity
  8
EV
  6
CONTINUOUS
 62
    24
100
AcDbVertex
100
AcDb2dVertex
 10
-0.809017
 20
-93.818443
 30
0.0
  0
VERTEX
  5
B2
100
AcDbEntity
  8
EV
  6
CONTINUOUS
 62
    24
100
AcDbVertex
100
AcDb2dVertex
 10
-0.410039
 20
-93.718118
 30
0.0
  0
VERTEX
  5
B3
100
AcDbEntity
  8
EV
  6
CONTINUOUS
 62
    24
100
AcDbVertex
100
AcDb2dVertex
 10
0.0
 20
-93.683922
 30
0.0
  0
VERTEX
  5
B4
100
AcDbEntity
  8
EV
  6
CONTINUOUS
 62
    24
100
AcDbVertex
100
AcDb2dVertex
 10
0.295827
 20
-93.702015
 30
0.0
  0
VERTEX
  5
B5
100
AcDbEntity
  8
EV
  6
CONTINUOUS
 62
    24
100
AcDbVertex
100
AcDb2dVertex
 10
0.587785
 20
-93.754005
 30
0.0
  0
VERTEX
  5
B6
100
AcDbEntity
  8
EV
  6
CONTINUOUS
 62
    24
100
AcDbVertex
100
AcDb2dVertex
 10
0.797703
 20
-93.812835
 30
0.0
  0
VERTEX
  5
B7
100
AcDbEntity
  8
EV
  6
CONTINUOUS
 62
    24
100
AcDbVertex
100
AcDb2dVertex
 10
1.0
 20
-93.892632
 30
0.0
  0
SEQEND
  5
B8
100
AcDbEntity
  8
EV
  6
CONTINUOUS
 62
    24
  0
POLYLINE
  5
B9
100
AcDbEntity
  8
EV
  6
CONTINUOUS
 62
    24
100
AcDb2dPolyline
 66
     1
 10
0.0
 20
0.0
 30
0.0
  0
VERTEX
  5
BA
100
AcDbEntity
  8
EV
  6
CONTINUOUS
 62
    24
100
AcDbVertex
100
AcDb2dVertex
 10
-1.0
 20
-93.892632
 30
0.0
  0
VERTEX
  5
BB
100
AcDbEntity
  8
EV
  6
CONTINUOUS
 62
    24
100
AcDbVertex
100
AcDb2dVertex
 10
-0.797703
 20
-93.812835
 30
0.0
  0
VERTEX
  5
BC
100
AcDbEntity
  8
EV
  6
CONTINUOUS
 62
    24
100
AcDbVertex
100
AcDb2dVertex
 10
-0.587785
 20
-93.754005
 30
0.0
  0
VERTEX
  5
BD
100
AcDbEntity
  8
EV
  6
CONTINUOUS
 62
    24
100
AcDbVertex
100
AcDb2dVertex
 10
-0.295827
 20
-93.702015
 30
0.0
  0
VERTEX
  5
BE
100
AcDbEntity
  8
EV
  6
CONTINUOUS
 62
    24
100
AcDbVertex
100
AcDb2dVertex
 10
0.0
 20
-93.683922
 30
0.0
  0
VERTEX
  5
BF
100
AcDbEntity
  8
EV
  6
CONTINUOUS
 62
    24
100
AcDbVertex
100
AcDb2dVertex
 10
0.410039
 20
-93.718118
 30
0.0
  0
VERTEX
  5
C0
100
AcDbEntity
  8
EV
  6
CONTINUOUS
 62
    24
100
AcDbVertex
100
AcDb2dVertex
 10
0.809017
 20
-93.818443
 30
0.0
  0
VERTEX
  5
C1
100
AcDbEntity
  8
EV
  6
CONTINUOUS
 62
    24
100
AcDbVertex
100
AcDb2dVertex
 10
0.905437
 20
-93.853287
 30
0.0
  0
VERTEX
  5
C2
100
AcDbEntity
  8
EV
  6
CONTINUOUS
 62
    24
100
AcDbVertex
100
AcDb2dVertex
 10
1.0
 20
-93.892632
 30
0.0
  0
SEQEND
  5
C3
100
AcDbEntity
  8
EV
  6
CONTINUOUS
 62
    24
  0
LINE
  5
C4
100
AcDbEntity
  8
IV
  6
CONTINUOUS
 62
     3
100
AcDbLine
 10
71.828743
 20
-86.811172
 30
0.0
 11
90.920631
 21
-97.833878
 31
0.0
  0
LINE
  5
C5
100
AcDbEntity
  8
IV
  6
CONTINUOUS
 62
     3
100
AcDbLine
 10
90.920631
 20
-97.833878
 30
0.0
 11
114.962257
 21
-83.953438
 31
0.0
  0
LINE
  5
C6
100
AcDbEntity
  8
IV
  6
CONTINUOUS
 62
     3
100
AcDbLine
 10
71.828743
 20
-86.811172
 30
0.0
 11
71.828743
 21
-83.545189
 31
0.0
  0
LINE
  5
C7
100
AcDbEntity
  8
IV
  6
CONTINUOUS
 62
     3
100
AcDbLine
 10
71.828743
 20
-83.545189
 30
0.0
 11
76.424942
 21
-80.891571
 31
0.0
  0
LINE
  5
C8
100
AcDbEntity
  8
IV
  6
CONTINUOUS
 62
     3
100
AcDbLine
 10
90.920631
 20
-97.833878
 30
0.0
 11
90.920631
 21
-94.567894
 31
0.0
  0
LINE
  5
C9
100
AcDbEntity
  8
IV
  6
CONTINUOUS
 62
     3
100
AcDbLine
 10
90.920631
 20
-94.567894
 30
0.0
 11
86.324432
 21
-91.914276
 31
0.0
  0
LINE
  5
CA
100
AcDbEntity
  8
IV
  6
CONTINUOUS
 62
     3
100
AcDbLine
 10
114.962257
 20
-83.953438
 30
0.0
 11
114.962257
 21
-80.687447
 31
0.0
  0
LINE
  5
CB
100
AcDbEntity
  8
IV
  6
CONTINUOUS
 62
     3
100
AcDbLine
 10
90.920631
 20
-94.567894
 30
0.0
 11
114.962257
 21
-80.687447
 31
0.0
  0
LINE
  5
CC
100
AcDbEntity
  8
IV
  6
CONTINUOUS
 62
     3
100
AcDbLine
 10
114.962257
 20
-80.687447
 30
0.0
 11
110.366066
 21
-78.033836
 31
0.0
  0
LINE
  5
CD
100
AcDbEntity
  8
IV
  6
CONTINUOUS
 62
     3
100
AcDbLine
 10
71.828743
 20
-83.545189
 30
0.0
 11
76.424942
 21
-86.198799
 31
0.0
  0
LINE
  5
CE
100
AcDbEntity
  8
IV
  6
CONTINUOUS
 62
     3
100
AcDbLine
 10
86.324432
 20
-91.914276
 30
0.0
 11
110.366066
 21
-78.033836
 31
0.0
  0
LINE
  5
CF
100
AcDbEntity
  8
IV
  6
CONTINUOUS
 62
     3
100
AcDbLine
 10
76.424942
 20
-86.198799
 30
0.0
 11
76.424942
 21
-68.644127
 31
0.0
  0
LINE
  5
D0
100
AcDbEntity
  8
IV
  6
CONTINUOUS
 62
     3
100
AcDbLine
 10
86.324432
 20
-91.914276
 30
0.0
 11
86.324432
 21
-74.359604
 31
0.0
  0
LINE
  5
D1
100
AcDbEntity
  8
IV
  6
CONTINUOUS
 62
     3
100
AcDbLine
 10
110.366066
 20
-78.033836
 30
0.0
 11
110.366066
 21
-60.47916
 31
0.0
  0
LINE
  5
D2
100
AcDbEntity
  8
IV
  6
CONTINUOUS
 62
     3
100
AcDbLine
 10
86.324432
 20
-74.359604
 30
0.0
 11
110.366066
 21
-60.47916
 31
0.0
  0
LINE
  5
D3
100
AcDbEntity
  8
IV
  6
CONTINUOUS
 62
     3
100
AcDbLine
 10
76.424942
 20
-68.644127
 30
0.0
 11
100.466568
 21
-54.763683
 31
0.0
  0
LINE
  5
D4
100
AcDbEntity
  8
IV
  6
CONTINUOUS
 62
     3
100
AcDbLine
 10
110.366066
 20
-60.47916
 30
0.0
 11
100.466568
 21
-54.763683
 31
0.0
  0
LINE
  5
D5
100
AcDbEntity
  8
IV
  6
CONTINUOUS
 62
     3
100
AcDbLine
 10
86.324432
 20
-74.359604
 30
0.0
 11
76.424942
 21
-68.644127
 31
0.0
  0
ELLIPSE
  5
D6
100
AcDbEntity
  8
IV
  6
CONTINUOUS
 62
     3
100
AcDbEllipse
 10
100.820122
 20
-86.402924
 30
0.0
 11
1.6000000000000174
 21
0.0
 31
0.0
210
0.0
220
0.0
230
1.0
 40
0.57735
 41
0.0
 42
6.2831853071795862
  0
ELLIPSE
  5
D7
100
AcDbEntity
  8
IV
  6
CONTINUOUS
 62
     3
100
AcDbEllipse
 10
109.658958
 20
-81.29982
 30
0.0
 11
1.5999999999999601
 21
0.0
 31
0.0
210
0.0
220
0.0
230
1.0
 40
0.57735
 41
0.0
 42
6.2831853071795862
  0
ELLIPSE
  5
D8
100
AcDbEntity
  8
IV
  6
CONTINUOUS
 62
     3
100
AcDbEllipse
 10
91.981293
 20
-91.506027
 30
0.0
 11
1.6000000000000174
 21
0.0
 31
0.0
210
0.0
220
0.0
230
1.0
 40
0.57735
 41
0.0
 42
6.2831853071795862
  0
ELLIPSE
  5
D9
100
AcDbEntity
  8
IV
  6
CONTINUOUS
 62
     3
100
AcDbEllipse
 10
77.13205
 20
-82.932816
 30
0.0
 11
1.6000000000000174
 21
0.0
 31
0.0
210
0.0
220
0.0
230
1.0
 40
0.57735
 41
2.028558445957386
 42
4.2546268612222073
  0
ELLIPSE
  5
DA
100
AcDbEntity
  8
IV
  6
CONTINUOUS
 62
     3
100
AcDbEllipse
 10
84.415245
 20
-69.746399
 30
0.0
 11
1.0
 21
0.0
 31
0.0
210
0.0
220
0.0
230
1.0
 40
0.57735
 41
0.0
 42
6.2831853071795862
  0
ELLIPSE
  5
DB
100
AcDbEntity
  8
IV
  6
CONTINUOUS
 62
     4
100
AcDbEllipse
 10
84.415245
 20
-69.746399
 30
0.0
 11
1.2500000000000142
 21
0.0
 31
0.0
210
0.0
220
0.0
230
1.0
 40
0.57735
 41
0.7807810891215072
 42
5.4977871437821273
  0
ELLIPSE
  5
DC
100
AcDbEntity
  8
IV
  6
CONTINUOUS
 62
     3
100
AcDbEllipse
 10
102.375763
 20
-59.376888
 30
0.0
 11
1.0000000000000284
 21
0.0
 31
0.0
210
0.0
220
0.0
230
1.0
 40
0.57735
 41
0.0
 42
6.2831853071795862
  0
ELLIPSE
  5
DD
100
AcDbEntity
  8
IV
  6
CONTINUOUS
 62
     4
100
AcDbEllipse
 10
102.375763
 20
-59.376888
 30
0.0
 11
1.2500000000000284
 21
0.0
 31
0.0
210
0.0
220
0.0
230
1.0
 40
0.57735
 41
0.7853981633974481
 42
5.4977871437821362
  0
ELLIPSE
  5
DE
100
AcDbEntity
  8
IV
  6
CONTINUOUS
 62
     3
100
AcDbEllipse
 10
81.374687
 20
-79.666832
 30
0.0
 11
1.2500000000000304
 21
-2.1650635094610822
 31
0.0
210
0.0
220
0.0
230
1.0
 40
0.57735
 41
0.0
 42
6.2831853071795862
  0
LINE
  5
DF
100
AcDbEntity
  8
CA
  6
CONTINUOUS
 62
     3
100
AcDbLine
 10
211.682404
 20
-127.642479
 30
0.0
 11
211.682404
 21
62.357517
 31
0.0
  0
LINE
  5
E0
100
AcDbEntity
  8
CA
  6
CONTINUOUS
 62
     4
100
AcDbLine
 10
221.682404
 20
-137.642487
 30
0.0
 11
221.682404
 21
72.357521
 31
0.0
  0
LINE
  5
E1
100
AcDbEntity
  8
CA
  6
CONTINUOUS
 62
     4
100
AcDbLine
 10
-75.317596
 20
-137.642487
 30
0.0
 11
-75.317596
 21
72.357521
 31
0.0
  0
LINE
  5
E2
100
AcDbEntity
  8
CA
  6
CONTINUOUS
 62
     3
100
AcDbLine
 10
-65.317596
 20
-127.642479
 30
0.0
 11
-65.317596
 21
62.357517
 31
0.0
  0
LINE
  5
E3
100
AcDbEntity
  8
CA
  6
CONTINUOUS
 62
     3
100
AcDbLine
 10
211.682404
 20
-127.642479
 30
0.0
 11
-65.317596
 21
-127.642479
 31
0.0
  0
LINE
  5
E4
100
AcDbEntity
  8
CA
  6
CONTINUOUS
 62
     4
100
AcDbLine
 10
221.682404
 20
-137.642487
 30
0.0
 11
-75.317596
 21
-137.642487
 31
0.0
  0
LINE
  5
E5
100
AcDbEntity
  8
CA
  6
CONTINUOUS
 62
     4
100
AcDbLine
 10
221.682404
 20
72.357521
 30
0.0
 11
-75.317596
 21
72.357521
 31
0.0
  0
LINE
  5
E6
100
AcDbEntity
  8
CA
  6
CONTINUOUS
 62
     3
100
AcDbLine
 10
211.682404
 20
62.357517
 30
0.0
 11
-65.317596
 21
62.357517
 31
0.0
  0
LINE
  5
E7
100
AcDbEntity
  8
CA
  6
CONTINUOUS
 62
     3
100
AcDbLine
 10
181.682404
 20
-127.642479
 30
0.0
 11
181.682404
 21
62.357517
 31
0.0
  0
LINE
  5
E8
100
AcDbEntity
  8
CA
  6
CONTINUOUS
 62
     3
100
AcDbLine
 10
191.682404
 20
-127.642479
 30
0.0
 11
191.682404
 21
62.357517
 31
0.0
  0
LINE
  5
E9
100
AcDbEntity
  8
CA
  6
CONTINUOUS
 62
     3
100
AcDbLine
 10
211.682404
 20
37.357517
 30
0.0
 11
191.682404
 21
37.357517
 31
0.0
  0
LINE
  5
EA
100
AcDbEntity
  8
CA
  6
CONTINUOUS
 62
     3
100
AcDbLine
 10
211.682404
 20
42.357517
 30
0.0
 11
191.682404
 21
42.357517
 31
0.0
  0
LINE
  5
EB
100
AcDbEntity
  8
CA
  6
CONTINUOUS
 62
     3
100
AcDbLine
 10
191.682404
 20
-87.642479
 30
0.0
 11
181.682404
 21
-87.642479
 31
0.0
  0
LINE
  5
EC
100
AcDbEntity
  8
CA
  6
CONTINUOUS
 62
     3
100
AcDbLine
 10
191.682404
 20
-15.642482
 30
0.0
 11
181.682404
 21
-15.642482
 31
0.0
  0
TEXT
  5
ED
100
AcDbEntity
  8
CA
  6
CONTINUOUS
 62
     3
100
AcDbText
 10
203.818875
 20
-123.939045
 30
0.0
 40
4.799982
  1
AUDINE ETANCHE : DRAIN PELTIER
 50
90.000003
  7
MICROCADAM
100
AcDbText
  0
TEXT
  5
EE
100
AcDbEntity
  8
CA
  6
CONTINUOUS
 62
     3
100
AcDbText
 10
205.78334
 20
45.21603
 30
0.0
 40
8.0
  1
A4
 50
90.000003
  7
MICROCADAM
100
AcDbText
  0
TEXT
  5
EF
100
AcDbEntity
  8
CA
  6
CONTINUOUS
 62
     3
100
AcDbText
 10
207.894018
 20
40.97908
 30
0.0
 40
2.0
  1
FORMAT
 50
179.999993
  7
MICROCADAM
100
AcDbText
  0
TEXT
  5
F0
100
AcDbEntity
  8
CA
  6
CONTINUOUS
 62
     3
100
AcDbText
 10
187.87764
 20
-125.291548
 30
0.0
 40
3.5
  1
ECHELLE 1:1
 50
90.000003
  7
MICROCADAM
100
AcDbText
  0
TEXT
  5
F1
100
AcDbEntity
  8
CA
  6
CONTINUOUS
 62
     3
100
AcDbText
 10
187.87764
 20
-85.699896
 30
0.0
 40
3.5
  1
MATIERE:2017A (AU4G)
 50
90.000003
  7
MICROCADAM
100
AcDbText
  0
INSERT
  5
1AE
100
AcDbEntity
  8
PV
  6
CONTINUOUS
 62
     4
100
AcDbBlockReference
  2
*D0
 10
0.0
 20
0.0
 30
0.0
  0
INSERT
  5
1AF
100
AcDbEntity
  8
PV
  6
CONTINUOUS
 62
     4
100
AcDbBlockReference
  2
*D1
 10
0.0
 20
0.0
 30
0.0
  0
INSERT
  5
1B0
100
AcDbEntity
  8
PV
  6
CONTINUOUS
 62
     4
100
AcDbBlockReference
  2
*D2
 10
0.0
 20
0.0
 30
0.0
  0
INSERT
  5
1B1
100
AcDbEntity
  8
PV
  6
CONTINUOUS
 62
     4
100
AcDbBlockReference
  2
*D3
 10
0.0
 20
0.0
 30
0.0
  0
INSERT
  5
1B2
100
AcDbEntity
  8
PV
  6
CONTINUOUS
 62
     4
100
AcDbBlockReference
  2
*D4
 10
0.0
 20
0.0
 30
0.0
  0
INSERT
  5
1B3
100
AcDbEntity
  8
PV
  6
CONTINUOUS
 62
     4
100
AcDbBlockReference
  2
*D5
 10
0.0
 20
0.0
 30
0.0
  0
INSERT
  5
1B4
100
AcDbEntity
  8
PV
  6
CONTINUOUS
 62
     4
100
AcDbBlockReference
  2
*D6
 10
0.0
 20
0.0
 30
0.0
  0
INSERT
  5
1B5
100
AcDbEntity
  8
PV
  6
CONTINUOUS
 62
     4
100
AcDbBlockReference
  2
*D7
 10
0.0
 20
0.0
 30
0.0
  0
INSERT
  5
1B6
100
AcDbEntity
  8
PV
  6
CONTINUOUS
 62
     4
100
AcDbBlockReference
  2
*D8
 10
0.0
 20
0.0
 30
0.0
  0
INSERT
  5
1B7
100
AcDbEntity
  8
PV
  6
CONTINUOUS
 62
     4
100
AcDbBlockReference
  2
*D9
 10
0.0
 20
0.0
 30
0.0
  0
INSERT
  5
1B8
100
AcDbEntity
  8
PV
  6
CONTINUOUS
 62
     4
100
AcDbBlockReference
  2
*D10
 10
0.0
 20
0.0
 30
0.0
  0
INSERT
  5
1B9
100
AcDbEntity
  8
SV
  6
CONTINUOUS
 62
     4
100
AcDbBlockReference
  2
*D11
 10
0.0
 20
0.0
 30
0.0
  0
INSERT
  5
1BA
100
AcDbEntity
  8
SV
  6
CONTINUOUS
 62
     4
100
AcDbBlockReference
  2
*D12
 10
0.0
 20
0.0
 30
0.0
  0
INSERT
  5
1BB
100
AcDbEntity
  8
SV
  6
CONTINUOUS
 62
     4
100
AcDbBlockReference
  2
*D13
 10
0.0
 20
0.0
 30
0.0
  0
INSERT
  5
1BC
100
AcDbEntity
  8
SV
  6
CONTINUOUS
 62
     4
100
AcDbBlockReference
  2
*D14
 10
0.0
 20
0.0
 30
0.0
  0
INSERT
  5
1BD
100
AcDbEntity
  8
SV
  6
CONTINUOUS
 62
     4
100
AcDbBlockReference
  2
*D15
 10
0.0
 20
0.0
 30
0.0
  0
INSERT
  5
1BE
100
AcDbEntity
  8
EV
  6
CONTINUOUS
 62
     4
100
AcDbBlockReference
  2
*D16
 10
0.0
 20
0.0
 30
0.0
  0
INSERT
  5
1BF
100
AcDbEntity
  8
EV
  6
CONTINUOUS
 62
     4
100
AcDbBlockReference
  2
*D17
 10
0.0
 20
0.0
 30
0.0
  0
INSERT
  5
1C0
100
AcDbEntity
  8
EV
  6
CONTINUOUS
 62
     4
100
AcDbBlockReference
  2
*D18
 10
0.0
 20
0.0
 30
0.0
  0
INSERT
  5
1C1
100
AcDbEntity
  8
EV
  6
CONTINUOUS
 62
     4
100
AcDbBlockReference
  2
*D19
 10
0.0
 20
0.0
 30
0.0
  0
ENDSEC
  0
SECTION
  2
OBJECTS
  0
DICTIONARY
  5
19
100
AcDbDictionary
  3
ACAD_GROUP
350
1A
  3
ACAD_MLINESTYLE
350
1B
  0
DICTIONARY
  5
1A
102
{ACAD_REACTORS
330
19
102
}
100
AcDbDictionary
  0
DICTIONARY
  5
1B
102
{ACAD_REACTORS
330
19
102
}
100
AcDbDictionary
  3
STANDARD
350
1C
  0
MLINESTYLE
  5
1C
102
{ACAD_REACTORS
330
1B
102
}
100
AcDbMlineStyle
  2
STANDARD
 70
     0
  3

 62
     0
 51
90.0
 52
90.0
 71
     2
 49
0.5
 62
   256
  6
BYLAYER
 49
-0.5
 62
   256
  6
BYLAYER
  0
ENDSEC
  0
EOF
