  0
SECTION
  2
HEADER
  9
$ACADVER
  1
AC1012
  9
$DWGCODEPAGE
  3
iso8859-1
  9
$INSBASE
 10
0.0
 20
0.0
 30
0.0
  9
$EXTMIN
 10
-29.105214
 20
-192.087179
 30
0.0
  9
$EXTMAX
 10
267.894786
 20
17.912821
 30
0.0
  9
$LIMMIN
 10
0.0
 20
0.0
  9
$LIMMAX
 10
12.0
 20
9.0
  9
$ORTHOMODE
 70
     0
  9
$REGENMODE
 70
     1
  9
$FILLMODE
 70
     1
  9
$QTEXTMODE
 70
     0
  9
$MIRRTEXT
 70
     1
  9
$DRAGMODE
 70
     2
  9
$LTSCALE
 40
1.0
  9
$OSMODE
 70
     0
  9
$ATTMODE
 70
     1
  9
$TEXTSIZE
 40
0.2
  9
$TRACEWID
 40
0.05
  9
$TEXTSTYLE
  7
STANDARD
  9
$CLAYER
  8
0
  9
$CELTYPE
  6
CONTINUOUS
  9
$CECOLOR
 62
   256
  9
$CELTSCALE
 40
1.0
  9
$DELOBJ
 70
     0
  9
$DISPSILH
 70
     0
  9
$DIMSCALE
 40
1.0
  9
$DIMASZ
 40
1.27
  9
$DIMEXO
 40
0.0625
  9
$DIMDLI
 40
0.38
  9
$DIMRND
 40
0.0
  9
$DIMDLE
 40
0.0
  9
$DIMEXE
 40
0.18
  9
$DIMTP
 40
0.0
  9
$DIMTM
 40
0.0
  9
$DIMTXT
 40
3.199994
  9
$DIMCEN
 40
0.09
  9
$DIMTSZ
 40
0.0
  9
$DIMTOL
 70
     0
  9
$DIMLIM
 70
     0
  9
$DIMTIH
 70
     1
  9
$DIMTOH
 70
     1
  9
$DIMSE1
 70
     0
  9
$DIMSE2
 70
     0
  9
$DIMTAD
 70
     0
  9
$DIMZIN
 70
     0
  9
$DIMBLK
  1

  9
$DIMASO
 70
     1
  9
$DIMSHO
 70
     1
  9
$DIMPOST
  1

  9
$DIMAPOST
  1

  9
$DIMALT
 70
     0
  9
$DIMALTD
 70
     2
  9
$DIMALTF
 40
25.4
  9
$DIMLFAC
 40
1.0
  9
$DIMTOFL
 70
     0
  9
$DIMTVP
 40
0.0
  9
$DIMTIX
 70
     0
  9
$DIMSOXD
 70
     0
  9
$DIMSAH
 70
     0
  9
$DIMBLK1
  1

  9
$DIMBLK2
  1

  9
$DIMSTYLE
  2
STANDARD
  9
$DIMCLRD
 70
     0
  9
$DIMCLRE
 70
     0
  9
$DIMCLRT
 70
     0
  9
$DIMTFAC
 40
1.0
  9
$DIMGAP
 40
0.09
  9
$DIMJUST
 70
     0
  9
$DIMSD1
 70
     0
  9
$DIMSD2
 70
     0
  9
$DIMTOLJ
 70
     1
  9
$DIMTZIN
 70
     0
  9
$DIMALTZ
 70
     0
  9
$DIMALTTZ
 70
     0
  9
$DIMFIT
 70
     3
  9
$DIMUPT
 70
     0
  9
$DIMUNIT
 70
     2
  9
$DIMDEC
 70
     2
  9
$DIMTDEC
 70
     2
  9
$DIMALTU
 70
     2
  9
$DIMALTTD
 70
     2
  9
$DIMTXSTY
  7
STANDARD
  9
$DIMAUNIT
 70
     0
  9
$LUNITS
 70
     2
  9
$LUPREC
 70
     4
  9
$SKETCHINC
 40
0.1
  9
$FILLETRAD
 40
0.0
  9
$AUNITS
 70
     0
  9
$AUPREC
 70
     0
  9
$MENU
  1
acad
  9
$ELEVATION
 40
0.0
  9
$PELEVATION
 40
0.0
  9
$THICKNESS
 40
0.0
  9
$LIMCHECK
 70
     0
  9
$BLIPMODE
 70
     1
  9
$CHAMFERA
 40
0.0
  9
$CHAMFERB
 40
0.0
  9
$CHAMFERC
 40
0.0
  9
$CHAMFERD
 40
0.0
  9
$SKPOLY
 70
     0
  9
$TDCREATE
 40
0.000000000
  9
$TDUPDATE
 40
0.000000000
  9
$TDINDWG
 40
0.0000000000
  9
$TDUSRTIMER
 40
0.0000000000
  9
$USRTIMER
 70
     1
  9
$ANGBASE
 50
0.0
  9
$ANGDIR
 70
     0
  9
$PDMODE
 70
     0
  9
$PDSIZE
 40
0.0
  9
$PLINEWID
 40
0.0
  9
$COORDS
 70
     0
  9
$SPLFRAME
 70
     0
  9
$SPLINETYPE
 70
     6
  9
$SPLINESEGS
 70
     8
  9
$ATTDIA
 70
     0
  9
$ATTREQ
 70
     1
  9
$HANDLING
 70
     1
  9
$HANDSEED
  5
126
  9
$SURFTAB1
 70
     6
  9
$SURFTAB2
 70
     6
  9
$SURFTYPE
 70
     6
  9
$SURFU
 70
     6
  9
$SURFV
 70
     6
  9
$UCSNAME
  2

  9
$UCSORG
 10
0.0
 20
0.0
 30
0.0
  9
$UCSXDIR
 10
1.0
 20
0.0
 30
0.0
  9
$UCSYDIR
 10
0.0
 20
1.0
 30
0.0
  9
$PUCSNAME
  2

  9
$PUCSORG
 10
0.0
 20
0.0
 30
0.0
  9
$PUCSXDIR
 10
1.0
 20
0.0
 30
0.0
  9
$PUCSYDIR
 10
0.0
 20
1.0
 30
0.0
  9
$USERI1
 70
     0
  9
$USERI2
 70
     0
  9
$USERI3
 70
     0
  9
$USERI4
 70
     0
  9
$USERI5
 70
     0
  9
$USERR1
 40
0.0
  9
$USERR2
 40
0.0
  9
$USERR3
 40
0.0
  9
$USERR4
 40
0.0
  9
$USERR5
 40
0.0
  9
$WORLDVIEW
 70
     1
  9
$SHADEDGE
 70
     3
  9
$SHADEDIF
 70
    70
  9
$TILEMODE
 70
     1
  9
$MAXACTVP
 70
    16
  9
$PINSBASE
 10
0.0
 20
0.0
 30
0.0
  9
$PLIMCHECK
 70
     0
  9
$PEXTMIN
 10
1.000000E+20
 20
1.000000E+20
 30
1.000000E+20
  9
$PEXTMAX
 10
-1.000000E+20
 20
-1.000000E+20
 30
-1.000000E+20
  9
$PLIMMIN
 10
0.0
 20
0.0
  9
$PLIMMAX
 10
12.0
 20
9.0
  9
$UNITMODE
 70
     0
  9
$VISRETAIN
 70
     0
  9
$PLINEGEN
 70
     0
  9
$PSLTSCALE
 70
     1
  9
$TREEDEPTH
 70
  3020
  9
$PICKSTYLE
 70
     1
  9
$CMLSTYLE
  2
STANDARD
  9
$CMLJUST
 70
     0
  9
$CMLSCALE
 40
1.0
  9
$SAVEIMAGES
 70
     0
  0
ENDSEC
  0
SECTION
  2
CLASSES
  0
CLASS
  1
LWPOLYLINE
  2
AcDbPolyline
  3
"AutoCAD"
 90
        0
280
     0
281
     1
  0
CLASS
  1
IMAGE
  2
AcDbRasterImage
  3
ISM
 90
      127
280
     0
281
     1
  0
CLASS
  1
OLE2FRAME
  2
AcDbOle2Frame
  3
""
 90
        0
280
     0
281
     1
  0
CLASS
  1
HATCH
  2
AcDbHatch
  3
"ACAD_SEDONA"
 90
        0
280
     0
281
     1
  0
CLASS
  1
DICTIONARYVAR
  2
AcDbDictionaryVar
  3
"AutoCAD"
 90
        0
280
     0
281
     0
  0
CLASS
  1
RASTERVARIABLES
  2
AcDbRasterVariables
  3
ISM
 90
        0
280
     0
281
     0
  0
CLASS
  1
IMAGEDEF
  2
AcDbRasterImageDef
  3
ISM
 90
        0
280
     0
281
     0
  0
CLASS
  1
IMAGEDEF_REACTOR
  2
AcDbRasterImageDefReactor
  3
ISM
 90
        1
280
     0
281
     0
  0
CLASS
  1
IDBUFFER
  2
AcDbIdBuffer
  3
"Acad"
 90
        0
280
     0
281
     0
  0
CLASS
  1
SPATIAL_FILTER
  2
AcDbSpatialFilter
  3
"Acad"
 90
        0
280
     0
281
     0
  0
CLASS
  1
XRECORD
  2
AcDbXrecord
  3
"<Built In>"
 90
        0
280
     0
281
     0
  0
CLASS
  1
SORTENTSTABLE
  2
AcDbSortentsTable
  3
"AutoCAD"
 90
        0
280
     0
281
     0
  0
CLASS
  1
LAYER_INDEX
  2
AcDbLayerIndex
  3
"Acad"
 90
        0
280
     0
281
     0
  0
CLASS
  1
SPATIAL_INDEX
  2
AcDbSpatialIndex
  3
"Acad"
 90
        0
280
     0
281
     0
  0
CLASS
  1
OBJECT_PTR
  2
CAseDLPNTableRecord
  3
"ASE-LPNTableRecord"
 90
        1
280
     0
281
     0
  0
ENDSEC
  0
SECTION
  2
TABLES
  0
TABLE
  2
VPORT
  5
7
100
AcDbSymbolTable
 70
     1
  0
VPORT
  5
15
100
AcDbSymbolTableRecord
100
AcDbViewportTableRecord
  2
*ACTIVE
 70
     0
 10
0.0
 20
0.0
 11
1.0
 21
1.0
 12
0.0
 22
0.0
 13
0.0
 23
0.0
 14
6.35
 24
6.35
 15
6.35
 25
6.35
 16
0.0
 26
0.0
 36
1.0
 17
0.0
 27
0.0
 37
0.0
 40
507.999992
 41
1.604229
 42
50.0
 43
0.0
 44
0.0
 50
0.0
 51
0.0
 71
     0
 72
   100
 73
     1
 74
     1
 75
     0
 76
     0
 77
     0
 78
     0
  0
ENDTAB
  0
TABLE
  2
LTYPE
  5
4
100
AcDbSymbolTable
 70
    24
  0
LTYPE
  5
11
100
AcDbSymbolTableRecord
100
AcDbLinetypeTableRecord
  2
BYBLOCK
 70
     0
  3

 72
    65
 73
     0
 40
0.0
  0
LTYPE
  5
12
100
AcDbSymbolTableRecord
100
AcDbLinetypeTableRecord
  2
BYLAYER
 70
     0
  3

 72
    65
 73
     0
 40
0.0
  0
LTYPE
  5
13
100
AcDbSymbolTableRecord
100
AcDbLinetypeTableRecord
  2
CONTINUOUS
 70
    64
  3
Style 1 Solid Line
 72
    65
 73
     0
 40
0.0
  0
LTYPE
  5
1D
100
AcDbSymbolTableRecord
100
AcDbLinetypeTableRecord
  2
DASHED
 70
    64
  3
Style 1 Dashed Line
 72
    65
 73
     2
 40
0.3
 49
0.17
 74
     0
 49
-0.13
 74
     0
  0
LTYPE
  5
1E
100
AcDbSymbolTableRecord
100
AcDbLinetypeTableRecord
  2
MCLT_DSH1
 70
    64
  3
Style 2 Dashed Line 1
 72
    65
 73
     2
 40
0.075
 49
0.04
 74
     0
 49
-0.035
 74
     0
  0
LTYPE
  5
1F
100
AcDbSymbolTableRecord
100
AcDbLinetypeTableRecord
  2
MCLT_DSH2
 70
    64
  3
Style 2 Dashed Line 2
 72
    65
 73
     2
 40
0.15
 49
0.11
 74
     0
 49
-0.04
 74
     0
  0
LTYPE
  5
20
100
AcDbSymbolTableRecord
100
AcDbLinetypeTableRecord
  2
MCLT_DSH3
 70
    64
  3
Style 2 Dashed Line 3
 72
    65
 73
     2
 40
0.2
 49
0.15
 74
     0
 49
-0.05
 74
     0
  0
LTYPE
  5
21
100
AcDbSymbolTableRecord
100
AcDbLinetypeTableRecord
  2
MCLT_DSH4
 70
    64
  3
Style 2 Dashed Line 4
 72
    65
 73
     2
 40
0.36
 49
0.28
 74
     0
 49
-0.08
 74
     0
  0
LTYPE
  5
22
100
AcDbSymbolTableRecord
100
AcDbLinetypeTableRecord
  2
MCLT_DSH5
 70
    64
  3
Style 2 Dashed Line 5
 72
    65
 73
     2
 40
0.47
 49
0.39
 74
     0
 49
-0.08
 74
     0
  0
LTYPE
  5
23
100
AcDbSymbolTableRecord
100
AcDbLinetypeTableRecord
  2
MCLT_DSH6
 70
    64
  3
Style 2 Dashed Line 6
 72
    65
 73
     2
 40
0.9
 49
0.81
 74
     0
 49
-0.09
 74
     0
  0
LTYPE
  5
24
100
AcDbSymbolTableRecord
100
AcDbLinetypeTableRecord
  2
CENTER
 70
    64
  3
Style 1 Center Line
 72
    65
 73
     4
 40
0.7
 49
0.4
 74
     0
 49
-0.1
 74
     0
 49
0.1
 74
     0
 49
-0.1
 74
     0
  0
LTYPE
  5
25
100
AcDbSymbolTableRecord
100
AcDbLinetypeTableRecord
  2
MCLT_CL1
 70
    64
  3
Style 2 Center Line 1
 72
    65
 73
     4
 40
0.7
 49
0.45
 74
     0
 49
-0.06
 74
     0
 49
0.13
 74
     0
 49
-0.06
 74
     0
  0
LTYPE
  5
26
100
AcDbSymbolTableRecord
100
AcDbLinetypeTableRecord
  2
MCLT_CL2
 70
    64
  3
Style 2 Center Line 2
 72
    65
 73
     4
 40
1.2
 49
1.01
 74
     0
 49
-0.06
 74
     0
 49
0.11
 74
     0
 49
-0.06
 74
     0
  0
LTYPE
  5
27
100
AcDbSymbolTableRecord
100
AcDbLinetypeTableRecord
  2
MCLT_CL3
 70
    64
  3
Style 2 Center Line 3
 72
    65
 73
     4
 40
1.2
 49
0.98
 74
     0
 49
-0.06
 74
     0
 49
0.1
 74
     0
 49
-0.06
 74
     0
  0
LTYPE
  5
28
100
AcDbSymbolTableRecord
100
AcDbLinetypeTableRecord
  2
MCLT_CL4
 70
    64
  3
Style 2 Center Line 4
 72
    65
 73
     4
 40
2.2
 49
1.93
 74
     0
 49
-0.07
 74
     0
 49
0.13
 74
     0
 49
-0.07
 74
     0
  0
LTYPE
  5
29
100
AcDbSymbolTableRecord
100
AcDbLinetypeTableRecord
  2
MCLT_CL5
 70
    64
  3
Style 2 Center Line 5
 72
    65
 73
     4
 40
2.2
 49
1.88
 74
     0
 49
-0.07
 74
     0
 49
0.18
 74
     0
 49
-0.07
 74
     0
  0
LTYPE
  5
2A
100
AcDbSymbolTableRecord
100
AcDbLinetypeTableRecord
  2
PHANTOM
 70
    64
  3
Style 1 Phantom Line
 72
    65
 73
     6
 40
1.0
 49
0.5
 74
     0
 49
-0.1
 74
     0
 49
0.1
 74
     0
 49
-0.1
 74
     0
 49
0.1
 74
     0
 49
-0.1
 74
     0
  0
LTYPE
  5
2B
100
AcDbSymbolTableRecord
100
AcDbLinetypeTableRecord
  2
MCLT_PL1
 70
    64
  3
Style 2 Phantom Line 1
 72
    65
 73
     6
 40
1.0
 49
0.6
 74
     0
 49
-0.08
 74
     0
 49
0.08
 74
     0
 49
-0.08
 74
     0
 49
0.08
 74
     0
 49
-0.08
 74
     0
  0
LTYPE
  5
2C
100
AcDbSymbolTableRecord
100
AcDbLinetypeTableRecord
  2
MCLT_PL2
 70
    64
  3
Style 2 Phantom Line 2
 72
    65
 73
     6
 40
1.08
 49
0.6
 74
     0
 49
-0.08
 74
     0
 49
0.12
 74
     0
 49
-0.08
 74
     0
 49
0.12
 74
     0
 49
-0.08
 74
     0
  0
LTYPE
  5
2D
100
AcDbSymbolTableRecord
100
AcDbLinetypeTableRecord
  2
MCLT_PL3
 70
    64
  3
Style 2 Phantom Line 3
 72
    65
 73
     6
 40
2.0
 49
1.44
 74
     0
 49
-0.08
 74
     0
 49
0.16
 74
     0
 49
-0.08
 74
     0
 49
0.16
 74
     0
 49
-0.08
 74
     0
  0
LTYPE
  5
2E
100
AcDbSymbolTableRecord
100
AcDbLinetypeTableRecord
  2
MCLT_SBK1
 70
    64
  3
Style 2 Set Back Line 1
 72
    65
 73
     8
 40
2.7
 49
2.08
 74
     0
 49
-0.08
 74
     0
 49
0.1
 74
     0
 49
-0.08
 74
     0
 49
0.1
 74
     0
 49
-0.08
 74
     0
 49
0.1
 74
     0
 49
-0.8
 74
     0
  0
LTYPE
  5
2F
100
AcDbSymbolTableRecord
100
AcDbLinetypeTableRecord
  2
MCLT_SBK2
 70
    64
  3
Style 2 Set Back Line 2
 72
    65
 73
     8
 40
3.71
 49
3.0
 74
     0
 49
-0.8
 74
     0
 49
0.13
 74
     0
 49
-0.08
 74
     0
 49
0.13
 74
     0
 49
-0.08
 74
     0
 49
0.13
 74
     0
 49
-0.8
 74
     0
  0
LTYPE
  5
30
100
AcDbSymbolTableRecord
100
AcDbLinetypeTableRecord
  2
MCLT_STCH
 70
    64
  3
Style 2 Stitch Line
 72
    65
 73
     2
 40
0.25
 49
0.0
 74
     0
 49
-0.25
 74
     0
  0
LTYPE
  5
31
100
AcDbSymbolTableRecord
100
AcDbLinetypeTableRecord
  2
MCLT_MTCH
 70
    64
  3
Style 2 Match Line
 72
    65
 73
     6
 40
2.0
 49
1.44
 74
     0
 49
-0.8
 74
     0
 49
0.16
 74
     0
 49
-0.08
 74
     0
 49
0.16
 74
     0
 49
-0.08
 74
     0
  0
ENDTAB
  0
TABLE
  2
LAYER
  5
2
100
AcDbSymbolTable
 70
     5
  0
LAYER
  5
14
100
AcDbSymbolTableRecord
100
AcDbLayerTableRecord
  2
0
 70
     0
 62
     7
  6
CONTINUOUS
  0
LAYER
  5
32
100
AcDbSymbolTableRecord
100
AcDbLayerTableRecord
  2
CA
 70
     0
 62
     7
  6
CONTINUOUS
  0
LAYER
  5
33
100
AcDbSymbolTableRecord
100
AcDbLayerTableRecord
  2
EV
 70
     0
 62
     7
  6
CONTINUOUS
  0
LAYER
  5
34
100
AcDbSymbolTableRecord
100
AcDbLayerTableRecord
  2
PV
 70
     0
 62
     7
  6
CONTINUOUS
  0
LAYER
  5
35
100
AcDbSymbolTableRecord
100
AcDbLayerTableRecord
  2
SV
 70
     0
 62
     7
  6
CONTINUOUS
  0
ENDTAB
  0
TABLE
  2
STYLE
  5
3
100
AcDbSymbolTable
 70
     2
  0
STYLE
  5
17
100
AcDbSymbolTableRecord
100
AcDbTextStyleTableRecord
  2
STANDARD
 70
     0
 40
0.0
 41
1.0
 50
0.0
 71
     0
 42
4.1672
  3
MONOTXT
  4

  0
STYLE
  5
36
100
AcDbSymbolTableRecord
100
AcDbTextStyleTableRecord
  2
MICROCADAM
 70
     0
 40
4.1672
 41
1.0
 50
0.0
 71
     0
 42
4.1672
  3
MONOTXT
  4

  0
ENDTAB
  0
TABLE
  2
VIEW
  5
5
100
AcDbSymbolTable
 70
     0
  0
ENDTAB
  0
TABLE
  2
UCS
  5
6
100
AcDbSymbolTable
 70
     0
  0
ENDTAB
  0
TABLE
  2
APPID
  5
8
100
AcDbSymbolTable
 70
     1
  0
APPID
  5
16
100
AcDbSymbolTableRecord
100
AcDbRegAppTableRecord
  2
ACAD
 70
     0
  0
ENDTAB
  0
TABLE
  2
DIMSTYLE
  5
9
100
AcDbSymbolTable
 70
     1
  0
DIMSTYLE
105
18
100
AcDbSymbolTableRecord
100
AcDbDimStyleTableRecord
  2
STANDARD
 70
     0
  3

  4

  5

  6

  7

 40
1.0
 41
1.27
 42
0.0625
 43
0.38
 44
0.18
 45
0.0
 46
0.0
 47
0.0
 48
0.0
140
3.199994
141
0.09
142
0.0
143
25.4
144
1.0
145
0.0
146
1.0
147
0.09
 71
     0
 72
     0
 73
     1
 74
     1
 75
     0
 76
     0
 77
     0
 78
     0
170
     0
171
     2
172
     0
173
     0
174
     0
175
     0
176
     0
177
     0
178
     0
270
     2
271
     2
272
     2
273
     2
274
     2
340
17
275
     0
280
     0
281
     0
282
     0
283
     1
284
     0
285
     0
286
     0
287
     3
288
     0
  0
ENDTAB
  0
TABLE
  2
BLOCK_RECORD
  5
1
100
AcDbSymbolTable
 70
    11
  0
BLOCK_RECORD
  5
A
100
AcDbSymbolTableRecord
100
AcDbBlockTableRecord
  2
*MODEL_SPACE
  0
BLOCK_RECORD
  5
B
100
AcDbSymbolTableRecord
100
AcDbBlockTableRecord
  2
*PAPER_SPACE
  0
BLOCK_RECORD
  5
A9
100
AcDbSymbolTableRecord
100
AcDbBlockTableRecord
  2
____-001
  0
BLOCK_RECORD
  5
BF
100
AcDbSymbolTableRecord
100
AcDbBlockTableRecord
  2
*D1
  0
BLOCK_RECORD
  5
C8
100
AcDbSymbolTableRecord
100
AcDbBlockTableRecord
  2
*D2
  0
BLOCK_RECORD
  5
D2
100
AcDbSymbolTableRecord
100
AcDbBlockTableRecord
  2
*D3
  0
BLOCK_RECORD
  5
DB
100
AcDbSymbolTableRecord
100
AcDbBlockTableRecord
  2
*D4
  0
BLOCK_RECORD
  5
E4
100
AcDbSymbolTableRecord
100
AcDbBlockTableRecord
  2
*D5
  0
BLOCK_RECORD
  5
EC
100
AcDbSymbolTableRecord
100
AcDbBlockTableRecord
  2
*D6
  0
BLOCK_RECORD
  5
F4
100
AcDbSymbolTableRecord
100
AcDbBlockTableRecord
  2
*D7
  0
BLOCK_RECORD
  5
FD
100
AcDbSymbolTableRecord
100
AcDbBlockTableRecord
  2
*D8
  0
BLOCK_RECORD
  5
106
100
AcDbSymbolTableRecord
100
AcDbBlockTableRecord
  2
*D9
  0
BLOCK_RECORD
  5
110
100
AcDbSymbolTableRecord
100
AcDbBlockTableRecord
  2
*D10
  0
ENDTAB
  0
ENDSEC
  0
SECTION
  2
BLOCKS
  0
BLOCK
  5
D
100
AcDbEntity
  8
0
100
AcDbBlockBegin
  2
*MODEL_SPACE
 70
     0
 10
0.0
 20
0.0
 30
0.0
  3
*MODEL_SPACE
  1

  0
ENDBLK
  5
E
100
AcDbEntity
  8
0
100
AcDbBlockEnd
  0
BLOCK
  5
F
100
AcDbEntity
 67
     1
  8
0
100
AcDbBlockBegin
  2
*PAPER_SPACE
 70
     0
 10
0.0
 20
0.0
 30
0.0
  3
*PAPER_SPACE
  1

  0
ENDBLK
  5
10
100
AcDbEntity
 67
     1
  8
0
100
AcDbBlockEnd
  0
BLOCK
  5
AA
100
AcDbEntity
  8
0
  6
CONTINUOUS
 62
     7
100
AcDbBlockBegin
  2
____-001
 70
     0
 10
0.0
 20
0.0
 30
0.0
  3
        
  1

  0
LINE
  5
AB
100
AcDbEntity
  8
0
  6
CONTINUOUS
 62
     3
100
AcDbLine
 10
95.0
 20
138.5
 30
0.0
 11
-95.0
 21
138.5
 31
0.0
  0
LINE
  5
AC
100
AcDbEntity
  8
0
  6
CONTINUOUS
 62
     4
100
AcDbLine
 10
105.0
 20
148.5
 30
0.0
 11
-105.0
 21
148.5
 31
0.0
  0
LINE
  5
AD
100
AcDbEntity
  8
0
  6
CONTINUOUS
 62
     4
100
AcDbLine
 10
105.0
 20
-148.5
 30
0.0
 11
-105.0
 21
-148.5
 31
0.0
  0
LINE
  5
AE
100
AcDbEntity
  8
0
  6
CONTINUOUS
 62
     3
100
AcDbLine
 10
95.0
 20
-138.5
 30
0.0
 11
-95.0
 21
-138.5
 31
0.0
  0
LINE
  5
AF
100
AcDbEntity
  8
0
  6
CONTINUOUS
 62
     3
100
AcDbLine
 10
95.0
 20
138.5
 30
0.0
 11
95.0
 21
-138.5
 31
0.0
  0
LINE
  5
B0
100
AcDbEntity
  8
0
  6
CONTINUOUS
 62
     4
100
AcDbLine
 10
105.0
 20
148.5
 30
0.0
 11
105.0
 21
-148.5
 31
0.0
  0
LINE
  5
B1
100
AcDbEntity
  8
0
  6
CONTINUOUS
 62
     4
100
AcDbLine
 10
-105.0
 20
148.5
 30
0.0
 11
-105.0
 21
-148.5
 31
0.0
  0
LINE
  5
B2
100
AcDbEntity
  8
0
  6
CONTINUOUS
 62
     3
100
AcDbLine
 10
-95.0
 20
138.5
 30
0.0
 11
-95.0
 21
-138.5
 31
0.0
  0
LINE
  5
B3
100
AcDbEntity
  8
0
  6
CONTINUOUS
 62
     3
100
AcDbLine
 10
95.0
 20
108.5
 30
0.0
 11
-95.0
 21
108.5
 31
0.0
  0
LINE
  5
B4
100
AcDbEntity
  8
0
  6
CONTINUOUS
 62
     3
100
AcDbLine
 10
95.0
 20
118.5
 30
0.0
 11
-95.0
 21
118.5
 31
0.0
  0
LINE
  5
B5
100
AcDbEntity
  8
0
  6
CONTINUOUS
 62
     3
100
AcDbLine
 10
-70.0
 20
138.5
 30
0.0
 11
-70.0
 21
118.5
 31
0.0
  0
LINE
  5
B6
100
AcDbEntity
  8
0
  6
CONTINUOUS
 62
     3
100
AcDbLine
 10
-75.0
 20
138.5
 30
0.0
 11
-75.0
 21
118.5
 31
0.0
  0
LINE
  5
B7
100
AcDbEntity
  8
0
  6
CONTINUOUS
 62
     3
100
AcDbLine
 10
55.0
 20
118.5
 30
0.0
 11
55.0
 21
108.5
 31
0.0
  0
LINE
  5
B8
100
AcDbEntity
  8
0
  6
CONTINUOUS
 62
     3
100
AcDbLine
 10
-17.0
 20
118.5
 30
0.0
 11
-17.0
 21
108.5
 31
0.0
  0
TEXT
  5
B9
100
AcDbEntity
  8
0
  6
CONTINUOUS
 62
     3
100
AcDbText
 10
91.296559
 20
130.636471
 30
0.0
 40
4.799982
  1
AUDINE ETANCHE : DRAIN PELTIER
 50
179.999993
  7
MICROCADAM
100
AcDbText
  0
TEXT
  5
BA
100
AcDbEntity
  8
0
  6
CONTINUOUS
 62
     3
100
AcDbText
 10
-77.858513
 20
132.600936
 30
0.0
 40
8.0
  1
A4
 50
179.999993
  7
MICROCADAM
100
AcDbText
  0
TEXT
  5
BB
100
AcDbEntity
  8
0
  6
CONTINUOUS
 62
     3
100
AcDbText
 10
-73.621559
 20
134.711615
 30
0.0
 40
2.0
  1
FORMAT
 50
269.999997
  7
MICROCADAM
100
AcDbText
  0
TEXT
  5
BC
100
AcDbEntity
  8
0
  6
CONTINUOUS
 62
     3
100
AcDbText
 10
92.649069
 20
114.695236
 30
0.0
 40
3.5
  1
ECHELLE 1:1
 50
179.999993
  7
MICROCADAM
100
AcDbText
  0
TEXT
  5
BD
100
AcDbEntity
  8
0
  6
CONTINUOUS
 62
     3
100
AcDbText
 10
53.057414
 20
114.695236
 30
0.0
 40
3.5
  1
MATIERE:2017A (AU4G)
 50
179.999993
  7
MICROCADAM
100
AcDbText
  0
ENDBLK
  5
BE
100
AcDbEntity
  8
0
100
AcDbBlockEnd
  0
BLOCK
  5
C0
100
AcDbEntity
  8
PV
  6
CONTINUOUS
 62
     4
100
AcDbBlockBegin
  2
*D1
 70
     1
 10
0.0
 20
0.0
 30
0.0
  3
*D1
  1

  0
LINE
  5
C1
100
AcDbEntity
  8
PV
  6
CONTINUOUS
 62
     4
100
AcDbLine
 10
80.0
 20
-1.033929
 30
0.0
 11
20.0
 21
-1.033929
 31
0.0
  0
SOLID
  5
C2
100
AcDbEntity
  8
PV
  6
CONTINUOUS
 62
     4
100
AcDbTrace
 10
77.189738
 20
-1.617433
 30
0.0
 11
80.0
 21
-1.033929
 31
0.0
 12
77.189741
 22
-0.450411
 32
0.0
 13
77.189741
 23
-0.450411
 33
0.0
  0
SOLID
  5
C3
100
AcDbEntity
  8
PV
  6
CONTINUOUS
 62
     4
100
AcDbTrace
 10
22.81026
 20
-0.450418
 30
0.0
 11
20.0
 21
-1.033929
 31
0.0
 12
22.810257
 22
-1.617455
 32
0.0
 13
22.810257
 23
-1.617455
 33
0.0
  0
LINE
  5
C4
100
AcDbEntity
  8
PV
  6
CONTINUOUS
 62
     4
100
AcDbLine
 10
80.000003
 20
-12.735
 30
0.0
 11
80.0
 21
1.252071
 31
0.0
  0
LINE
  5
C5
100
AcDbEntity
  8
PV
  6
CONTINUOUS
 62
     4
100
AcDbLine
 10
20.000003
 20
-12.735
 30
0.0
 11
20.0
 21
1.252071
 31
0.0
  0
TEXT
  5
C6
100
AcDbEntity
  8
PV
  6
CONTINUOUS
 62
     4
100
AcDbText
 10
47.257003
 20
0.566067
 30
0.0
 40
3.199994
  1
60
  7
MICROCADAM
100
AcDbText
  0
ENDBLK
  5
C7
100
AcDbEntity
  8
0
100
AcDbBlockEnd
  0
BLOCK
  5
C9
100
AcDbEntity
  8
PV
  6
CONTINUOUS
 62
     4
100
AcDbBlockBegin
  2
*D2
 70
     1
 10
0.0
 20
0.0
 30
0.0
  3
*D2
  1

  0
LINE
  5
CA
100
AcDbEntity
  8
PV
  6
CONTINUOUS
 62
     4
100
AcDbLine
 10
31.35
 20
-9.771564
 30
0.0
 11
13.65
 21
-9.771547
 31
0.0
  0
SOLID
  5
CB
100
AcDbEntity
  8
PV
  6
CONTINUOUS
 62
     4
100
AcDbTrace
 10
27.81026
 20
-9.188052
 30
0.0
 11
25.0
 21
-9.771564
 31
0.0
 12
27.81026
 22
-10.355075
 32
0.0
 13
27.81026
 23
-10.355075
 33
0.0
  0
SOLID
  5
CC
100
AcDbEntity
  8
PV
  6
CONTINUOUS
 62
     4
100
AcDbTrace
 10
17.189738
 20
-10.355067
 30
0.0
 11
20.0
 21
-9.771564
 31
0.0
 12
17.189741
 22
-9.188045
 32
0.0
 13
17.189741
 23
-9.188045
 33
0.0
  0
LINE
  5
CD
100
AcDbEntity
  8
PV
  6
CONTINUOUS
 62
     4
100
AcDbLine
 10
20.0
 20
-9.771564
 30
0.0
 11
1.134498
 21
-9.771564
 31
0.0
  0
LINE
  5
CE
100
AcDbEntity
  8
PV
  6
CONTINUOUS
 62
     4
100
AcDbLine
 10
24.99999
 20
-10.195141
 30
0.0
 11
25.0
 21
-12.057563
 31
0.0
  0
LINE
  5
CF
100
AcDbEntity
  8
PV
  6
CONTINUOUS
 62
     4
100
AcDbLine
 10
20.000003
 20
-12.735
 30
0.0
 11
20.0
 21
-7.485563
 31
0.0
  0
TEXT
  5
D0
100
AcDbEntity
  8
PV
  6
CONTINUOUS
 62
     4
100
AcDbText
 10
1.134498
 20
-8.171567
 30
0.0
 40
3.199994
  1
5
  7
MICROCADAM
100
AcDbText
  0
ENDBLK
  5
D1
100
AcDbEntity
  8
0
100
AcDbBlockEnd
  0
BLOCK
  5
D3
100
AcDbEntity
  8
PV
  6
CONTINUOUS
 62
     4
100
AcDbBlockBegin
  2
*D3
 70
     1
 10
0.0
 20
0.0
 30
0.0
  3
*D3
  1

  0
LINE
  5
D4
100
AcDbEntity
  8
PV
  6
CONTINUOUS
 62
     4
100
AcDbLine
 10
25.0
 20
-83.467598
 30
0.0
 11
65.0
 21
-83.467598
 31
0.0
  0
SOLID
  5
D5
100
AcDbEntity
  8
PV
  6
CONTINUOUS
 62
     4
100
AcDbTrace
 10
27.81026
 20
-82.884087
 30
0.0
 11
25.0
 21
-83.467598
 31
0.0
 12
27.810257
 22
-84.051124
 32
0.0
 13
27.810257
 23
-84.051124
 33
0.0
  0
SOLID
  5
D6
100
AcDbEntity
  8
PV
  6
CONTINUOUS
 62
     4
100
AcDbTrace
 10
62.189738
 20
-84.051102
 30
0.0
 11
65.0
 21
-83.467598
 31
0.0
 12
62.189741
 22
-82.884079
 32
0.0
 13
62.189741
 23
-82.884079
 33
0.0
  0
LINE
  5
D7
100
AcDbEntity
  8
PV
  6
CONTINUOUS
 62
     4
100
AcDbLine
 10
24.99999
 20
-84.360168
 30
0.0
 11
25.0
 21
-85.753593
 31
0.0
  0
LINE
  5
D8
100
AcDbEntity
  8
PV
  6
CONTINUOUS
 62
     4
100
AcDbLine
 10
64.99999
 20
-84.360168
 30
0.0
 11
65.0
 21
-85.753593
 31
0.0
  0
TEXT
  5
D9
100
AcDbEntity
  8
PV
  6
CONTINUOUS
 62
     4
100
AcDbText
 10
40.628509
 20
-81.867602
 30
0.0
 40
3.199994
  1
40
  7
MICROCADAM
100
AcDbText
  0
ENDBLK
  5
DA
100
AcDbEntity
  8
0
100
AcDbBlockEnd
  0
BLOCK
  5
DC
100
AcDbEntity
  8
PV
  6
CONTINUOUS
 62
     4
100
AcDbBlockBegin
  2
*D4
 70
     1
 10
0.0
 20
0.0
 30
0.0
  3
*D4
  1

  0
LINE
  5
DD
100
AcDbEntity
  8
PV
  6
CONTINUOUS
 62
     4
100
AcDbLine
 10
25.0
 20
-91.528343
 30
0.0
 11
75.0
 21
-91.528343
 31
0.0
  0
SOLID
  5
DE
100
AcDbEntity
  8
PV
  6
CONTINUOUS
 62
     4
100
AcDbTrace
 10
27.81026
 20
-90.944832
 30
0.0
 11
25.0
 21
-91.528343
 31
0.0
 12
27.810257
 22
-92.111869
 32
0.0
 13
27.810257
 23
-92.111869
 33
0.0
  0
SOLID
  5
DF
100
AcDbEntity
  8
PV
  6
CONTINUOUS
 62
     4
100
AcDbTrace
 10
72.189738
 20
-92.111847
 30
0.0
 11
75.0
 21
-91.528343
 31
0.0
 12
72.189741
 22
-90.944825
 32
0.0
 13
72.189741
 23
-90.944825
 33
0.0
  0
LINE
  5
E0
100
AcDbEntity
  8
PV
  6
CONTINUOUS
 62
     4
100
AcDbLine
 10
24.99999
 20
-84.360168
 30
0.0
 11
25.0
 21
-93.814339
 31
0.0
  0
LINE
  5
E1
100
AcDbEntity
  8
PV
  6
CONTINUOUS
 62
     4
100
AcDbLine
 10
74.99999
 20
-84.922027
 30
0.0
 11
75.0
 21
-93.814339
 31
0.0
  0
TEXT
  5
E2
100
AcDbEntity
  8
PV
  6
CONTINUOUS
 62
     4
100
AcDbText
 10
44.031936
 20
-89.928347
 30
0.0
 40
3.199994
  1
50
  7
MICROCADAM
100
AcDbText
  0
ENDBLK
  5
E3
100
AcDbEntity
  8
0
100
AcDbBlockEnd
  0
BLOCK
  5
E5
100
AcDbEntity
  8
PV
  6
CONTINUOUS
 62
     4
100
AcDbBlockBegin
  2
*D5
 70
     1
 10
0.0
 20
0.0
 30
0.0
  3
*D5
  1

  0
LINE
  5
E6
100
AcDbEntity
  8
PV
  6
CONTINUOUS
 62
     4
100
AcDbLine
 10
68.576616
 20
-65.340416
 30
0.0
 11
81.423373
 21
-75.2096
 31
0.0
  0
SOLID
  5
E7
100
AcDbEntity
  8
PV
  6
CONTINUOUS
 62
     4
100
AcDbTrace
 10
71.028181
 20
-67.959594
 30
0.0
 11
73.612228
 21
-69.208893
 31
0.0
 12
71.739139
 22
-67.034132
 32
0.0
 13
71.739139
 23
-67.034132
 33
0.0
  0
SOLID
  5
E8
100
AcDbEntity
  8
PV
  6
CONTINUOUS
 62
     4
100
AcDbTrace
 10
78.971816
 20
-72.590416
 30
0.0
 11
76.387772
 21
-71.34111
 31
0.0
 12
78.260855
 22
-73.515876
 32
0.0
 13
78.260855
 23
-73.515876
 33
0.0
  0
LINE
  5
E9
100
AcDbEntity
  8
PV
  6
CONTINUOUS
 62
     4
100
AcDbLine
 10
76.387772
 20
-71.34111
 30
0.0
 11
106.895454
 21
-94.777542
 31
0.0
  0
TEXT
  5
EA
100
AcDbEntity
  8
PV
  6
CONTINUOUS
 62
     4
100
AcDbText
 10
83.720148
 20
-74.967268
 30
0.0
 40
3.199994
  1
%%C 3.5 (5x)
 50
322.5
  7
MICROCADAM
100
AcDbText
  0
ENDBLK
  5
EB
100
AcDbEntity
  8
0
100
AcDbBlockEnd
  0
BLOCK
  5
ED
100
AcDbEntity
  8
PV
  6
CONTINUOUS
 62
     4
100
AcDbBlockBegin
  2
*D6
 70
     1
 10
0.0
 20
0.0
 30
0.0
  3
*D6
  1

  0
LINE
  5
EE
100
AcDbEntity
  8
PV
  6
CONTINUOUS
 62
     4
100
AcDbLine
 10
59.370753
 20
-64.803797
 30
0.0
 11
70.629231
 21
-75.746218
 31
0.0
  0
SOLID
  5
EF
100
AcDbEntity
  8
PV
  6
CONTINUOUS
 62
     4
100
AcDbTrace
 10
61.50241
 20
-67.68933
 30
0.0
 11
63.924343
 21
-69.229553
 31
0.0
 12
62.315787
 22
-66.852456
 32
0.0
 13
62.315787
 23
-66.852456
 33
0.0
  0
SOLID
  5
F0
100
AcDbEntity
  8
PV
  6
CONTINUOUS
 62
     4
100
AcDbTrace
 10
68.497582
 20
-72.860679
 30
0.0
 11
66.075653
 21
-71.32045
 31
0.0
 12
67.684203
 22
-73.697552
 32
0.0
 13
67.684203
 23
-73.697552
 33
0.0
  0
LINE
  5
F1
100
AcDbEntity
  8
PV
  6
CONTINUOUS
 62
     4
100
AcDbLine
 10
66.075653
 20
-71.32045
 30
0.0
 11
96.383797
 21
-100.77742
 31
0.0
  0
TEXT
  5
F2
100
AcDbEntity
  8
PV
  6
CONTINUOUS
 62
     4
100
AcDbText
 10
91.271332
 20
-93.575665
 30
0.0
 40
3.199994
  1
%%C 3
 50
315.799998
  7
MICROCADAM
100
AcDbText
  0
ENDBLK
  5
F3
100
AcDbEntity
  8
0
100
AcDbBlockEnd
  0
BLOCK
  5
F5
100
AcDbEntity
  8
SV
  6
CONTINUOUS
 62
     4
100
AcDbBlockBegin
  2
*D7
 70
     1
 10
0.0
 20
0.0
 30
0.0
  3
*D7
  1

  0
LINE
  5
F6
100
AcDbEntity
  8
SV
  6
CONTINUOUS
 62
     4
100
AcDbLine
 10
217.136795
 20
-75.275002
 30
0.0
 11
217.136795
 21
-15.275
 31
0.0
  0
SOLID
  5
F7
100
AcDbEntity
  8
SV
  6
CONTINUOUS
 62
     4
100
AcDbTrace
 10
216.553288
 20
-72.464741
 30
0.0
 11
217.136795
 21
-75.275002
 31
0.0
 12
217.72031
 22
-72.464742
 32
0.0
 13
217.72031
 23
-72.464742
 33
0.0
  0
SOLID
  5
F8
100
AcDbEntity
  8
SV
  6
CONTINUOUS
 62
     4
100
AcDbTrace
 10
217.720295
 20
-18.085262
 30
0.0
 11
217.136795
 21
-15.275
 31
0.0
 12
216.553273
 22
-18.085258
 32
0.0
 13
216.553273
 23
-18.085258
 33
0.0
  0
LINE
  5
F9
100
AcDbEntity
  8
SV
  6
CONTINUOUS
 62
     4
100
AcDbLine
 10
144.309455
 20
-75.275002
 30
0.0
 11
219.422791
 21
-75.275002
 31
0.0
  0
LINE
  5
FA
100
AcDbEntity
  8
SV
  6
CONTINUOUS
 62
     4
100
AcDbLine
 10
144.309455
 20
-15.275
 30
0.0
 11
219.422791
 21
-15.275
 31
0.0
  0
TEXT
  5
FB
100
AcDbEntity
  8
SV
  6
CONTINUOUS
 62
     4
100
AcDbText
 10
215.536799
 20
-48.017999
 30
0.0
 40
3.199994
  1
60
 50
90.000003
  7
MICROCADAM
100
AcDbText
  0
ENDBLK
  5
FC
100
AcDbEntity
  8
0
100
AcDbBlockEnd
  0
BLOCK
  5
FE
100
AcDbEntity
  8
SV
  6
CONTINUOUS
 62
     4
100
AcDbBlockBegin
  2
*D8
 70
     1
 10
0.0
 20
0.0
 30
0.0
  3
*D8
  1

  0
LINE
  5
FF
100
AcDbEntity
  8
SV
  6
CONTINUOUS
 62
     4
100
AcDbLine
 10
124.327438
 20
-20.275
 30
0.0
 11
124.327438
 21
-70.275002
 31
0.0
  0
SOLID
  5
100
100
AcDbEntity
  8
SV
  6
CONTINUOUS
 62
     4
100
AcDbTrace
 10
124.910938
 20
-23.085262
 30
0.0
 11
124.327438
 21
-20.275
 31
0.0
 12
123.743916
 22
-23.085258
 32
0.0
 13
123.743916
 23
-23.085258
 33
0.0
  0
SOLID
  5
101
100
AcDbEntity
  8
SV
  6
CONTINUOUS
 62
     4
100
AcDbTrace
 10
123.743931
 20
-67.464741
 30
0.0
 11
124.327438
 21
-70.275002
 31
0.0
 12
124.910953
 22
-67.464742
 32
0.0
 13
124.910953
 23
-67.464742
 33
0.0
  0
LINE
  5
102
100
AcDbEntity
  8
SV
  6
CONTINUOUS
 62
     4
100
AcDbLine
 10
129.876657
 20
-20.274993
 30
0.0
 11
122.041435
 21
-20.275
 31
0.0
  0
LINE
  5
103
100
AcDbEntity
  8
SV
  6
CONTINUOUS
 62
     4
100
AcDbLine
 10
130.997537
 20
-70.274995
 30
0.0
 11
122.041435
 21
-70.275002
 31
0.0
  0
TEXT
  5
104
100
AcDbEntity
  8
SV
  6
CONTINUOUS
 62
     4
100
AcDbText
 10
122.727442
 20
-48.017999
 30
0.0
 40
3.199994
  1
50
 50
90.000003
  7
MICROCADAM
100
AcDbText
  0
ENDBLK
  5
105
100
AcDbEntity
  8
0
100
AcDbBlockEnd
  0
BLOCK
  5
107
100
AcDbEntity
  8
SV
  6
CONTINUOUS
 62
     4
100
AcDbBlockBegin
  2
*D9
 70
     1
 10
0.0
 20
0.0
 30
0.0
  3
*D9
  1

  0
LINE
  5
108
100
AcDbEntity
  8
SV
  6
CONTINUOUS
 62
     4
100
AcDbLine
 10
134.550561
 20
-63.925002
 30
0.0
 11
134.550527
 21
-81.625001
 31
0.0
  0
SOLID
  5
109
100
AcDbEntity
  8
SV
  6
CONTINUOUS
 62
     4
100
AcDbTrace
 10
133.967045
 20
-67.464741
 30
0.0
 11
134.550552
 21
-70.275002
 31
0.0
 12
135.134067
 22
-67.464742
 32
0.0
 13
135.134067
 23
-67.464742
 33
0.0
  0
SOLID
  5
10A
100
AcDbEntity
  8
SV
  6
CONTINUOUS
 62
     4
100
AcDbTrace
 10
135.134052
 20
-78.085264
 30
0.0
 11
134.550552
 21
-75.275002
 31
0.0
 12
133.96703
 22
-78.085259
 32
0.0
 13
133.96703
 23
-78.085259
 33
0.0
  0
LINE
  5
10B
100
AcDbEntity
  8
SV
  6
CONTINUOUS
 62
     4
100
AcDbLine
 10
134.550552
 20
-70.275002
 30
0.0
 11
134.550552
 21
-54.104763
 31
0.0
  0
LINE
  5
10C
100
AcDbEntity
  8
SV
  6
CONTINUOUS
 62
     4
100
AcDbLine
 10
136.077537
 20
-70.275002
 30
0.0
 11
136.836548
 21
-70.275002
 31
0.0
  0
LINE
  5
10D
100
AcDbEntity
  8
SV
  6
CONTINUOUS
 62
     4
100
AcDbLine
 10
139.229455
 20
-75.274995
 30
0.0
 11
132.264542
 21
-75.275002
 31
0.0
  0
TEXT
  5
10E
100
AcDbEntity
  8
SV
  6
CONTINUOUS
 62
     4
100
AcDbText
 10
132.950556
 20
-56.390765
 30
0.0
 40
3.199994
  1
5
 50
90.000003
  7
MICROCADAM
100
AcDbText
  0
ENDBLK
  5
10F
100
AcDbEntity
  8
0
100
AcDbBlockEnd
  0
BLOCK
  5
111
100
AcDbEntity
  8
EV
  6
CONTINUOUS
 62
     4
100
AcDbBlockBegin
  2
*D10
 70
     1
 10
0.0
 20
0.0
 30
0.0
  3
*D10
  1

  0
LINE
  5
112
100
AcDbEntity
  8
EV
  6
CONTINUOUS
 62
     4
100
AcDbLine
 10
65.266913
 20
-103.529883
 30
0.0
 11
84.466913
 21
-103.5299
 31
0.0
  0
SOLID
  5
113
100
AcDbEntity
  8
EV
  6
CONTINUOUS
 62
     4
100
AcDbTrace
 10
68.806651
 20
-104.113403
 30
0.0
 11
71.616913
 21
-103.5299
 31
0.0
 12
68.806654
 22
-102.946381
 32
0.0
 13
68.806654
 23
-102.946381
 33
0.0
  0
SOLID
  5
114
100
AcDbEntity
  8
EV
  6
CONTINUOUS
 62
     4
100
AcDbTrace
 10
80.927173
 20
-102.946388
 30
0.0
 11
78.116913
 21
-103.5299
 31
0.0
 12
80.927173
 22
-104.113411
 32
0.0
 13
80.927173
 23
-104.113411
 33
0.0
  0
LINE
  5
115
100
AcDbEntity
  8
EV
  6
CONTINUOUS
 62
     4
100
AcDbLine
 10
71.616913
 20
-103.5299
 30
0.0
 11
-8.884089
 21
-103.5299
 31
0.0
  0
LINE
  5
116
100
AcDbEntity
  8
EV
  6
CONTINUOUS
 62
     4
100
AcDbLine
 10
71.616916
 20
-105.744241
 30
0.0
 11
71.616913
 21
-101.243896
 31
0.0
  0
LINE
  5
117
100
AcDbEntity
  8
EV
  6
CONTINUOUS
 62
     4
100
AcDbLine
 10
78.116916
 20
-105.744241
 30
0.0
 11
78.116913
 21
-101.243896
 31
0.0
  0
TEXT
  5
118
100
AcDbEntity
  8
EV
  6
CONTINUOUS
 62
     4
100
AcDbText
 10
-9.524088
 20
-101.929904
 30
0.0
 40
3.199994
  1
Lamage %%C6.5 à 90%%D
  7
MICROCADAM
100
AcDbText
  0
ENDBLK
  5
119
100
AcDbEntity
  8
0
100
AcDbBlockEnd
  0
ENDSEC
  0
SECTION
  2
ENTITIES
  0
LINE
  5
37
100
AcDbEntity
  8
PV
  6
CONTINUOUS
 62
     3
100
AcDbLine
 10
80.0
 20
-35.200001
 30
0.0
 11
20.0
 21
-35.200001
 31
0.0
  0
LINE
  5
38
100
AcDbEntity
  8
PV
  6
CONTINUOUS
 62
     3
100
AcDbLine
 10
80.0
 20
-34.164307
 30
0.0
 11
20.0
 21
-34.164307
 31
0.0
  0
LINE
  5
39
100
AcDbEntity
  8
PV
  6
CONTINUOUS
 62
     3
100
AcDbLine
 10
80.0
 20
-32.75
 30
0.0
 11
20.0
 21
-32.75
 31
0.0
  0
LINE
  5
3A
100
AcDbEntity
  8
PV
  6
CONTINUOUS
 62
     3
100
AcDbLine
 10
80.0
 20
-27.575001
 30
0.0
 11
20.0
 21
-27.575001
 31
0.0
  0
LINE
  5
3B
100
AcDbEntity
  8
PV
  6
CONTINUOUS
 62
     3
100
AcDbLine
 10
80.0
 20
-26.160692
 30
0.0
 11
20.0
 21
-26.160692
 31
0.0
  0
LINE
  5
3C
100
AcDbEntity
  8
PV
  6
CONTINUOUS
 62
     3
100
AcDbLine
 10
80.0
 20
-25.125
 30
0.0
 11
20.0
 21
-25.125
 31
0.0
  0
LINE
  5
3D
100
AcDbEntity
  8
PV
  6
CONTINUOUS
 62
     3
100
AcDbLine
 10
80.0
 20
-24.089308
 30
0.0
 11
20.0
 21
-24.089308
 31
0.0
  0
LINE
  5
3E
100
AcDbEntity
  8
PV
  6
CONTINUOUS
 62
     3
100
AcDbLine
 10
80.0
 20
-22.674999
 30
0.0
 11
20.0
 21
-22.674999
 31
0.0
  0
LINE
  5
3F
100
AcDbEntity
  8
PV
  6
CONTINUOUS
 62
     3
100
AcDbLine
 10
80.0
 20
-17.5
 30
0.0
 11
20.0
 21
-17.5
 31
0.0
  0
LINE
  5
40
100
AcDbEntity
  8
PV
  6
CONTINUOUS
 62
     3
100
AcDbLine
 10
80.0
 20
-16.085691
 30
0.0
 11
20.0
 21
-16.085691
 31
0.0
  0
LINE
  5
41
100
AcDbEntity
  8
PV
  6
CONTINUOUS
 62
     3
100
AcDbLine
 10
80.0
 20
-75.275002
 30
0.0
 11
20.0
 21
-75.275002
 31
0.0
  0
LINE
  5
42
100
AcDbEntity
  8
PV
  6
CONTINUOUS
 62
     3
100
AcDbLine
 10
80.0
 20
-74.46431
 30
0.0
 11
20.0
 21
-74.46431
 31
0.0
  0
LINE
  5
43
100
AcDbEntity
  8
PV
  6
CONTINUOUS
 62
     3
100
AcDbLine
 10
80.0
 20
-73.050003
 30
0.0
 11
20.0
 21
-73.050003
 31
0.0
  0
LINE
  5
44
100
AcDbEntity
  8
PV
  6
CONTINUOUS
 62
     3
100
AcDbLine
 10
80.0
 20
-67.875
 30
0.0
 11
20.0
 21
-67.875
 31
0.0
  0
LINE
  5
45
100
AcDbEntity
  8
PV
  6
CONTINUOUS
 62
     3
100
AcDbLine
 10
80.0
 20
-66.460693
 30
0.0
 11
20.0
 21
-66.460693
 31
0.0
  0
LINE
  5
46
100
AcDbEntity
  8
PV
  6
CONTINUOUS
 62
     3
100
AcDbLine
 10
80.0
 20
-65.425003
 30
0.0
 11
20.0
 21
-65.425003
 31
0.0
  0
LINE
  5
47
100
AcDbEntity
  8
PV
  6
CONTINUOUS
 62
     3
100
AcDbLine
 10
80.0
 20
-64.389305
 30
0.0
 11
20.0
 21
-64.389305
 31
0.0
  0
LINE
  5
48
100
AcDbEntity
  8
PV
  6
CONTINUOUS
 62
     3
100
AcDbLine
 10
80.0
 20
-62.974998
 30
0.0
 11
20.0
 21
-62.974998
 31
0.0
  0
LINE
  5
49
100
AcDbEntity
  8
PV
  6
CONTINUOUS
 62
     3
100
AcDbLine
 10
80.0
 20
-57.799999
 30
0.0
 11
20.0
 21
-57.799999
 31
0.0
  0
LINE
  5
4A
100
AcDbEntity
  8
PV
  6
CONTINUOUS
 62
     3
100
AcDbLine
 10
80.0
 20
-56.385693
 30
0.0
 11
20.0
 21
-56.385693
 31
0.0
  0
LINE
  5
4B
100
AcDbEntity
  8
PV
  6
CONTINUOUS
 62
     3
100
AcDbLine
 10
80.0
 20
-55.349998
 30
0.0
 11
20.0
 21
-55.349998
 31
0.0
  0
LINE
  5
4C
100
AcDbEntity
  8
PV
  6
CONTINUOUS
 62
     3
100
AcDbLine
 10
80.0
 20
-54.314308
 30
0.0
 11
20.0
 21
-54.314308
 31
0.0
  0
LINE
  5
4D
100
AcDbEntity
  8
PV
  6
CONTINUOUS
 62
     3
100
AcDbLine
 10
80.0
 20
-52.900002
 30
0.0
 11
20.0
 21
-52.900002
 31
0.0
  0
LINE
  5
4E
100
AcDbEntity
  8
PV
  6
CONTINUOUS
 62
     3
100
AcDbLine
 10
80.0
 20
-47.724998
 30
0.0
 11
20.0
 21
-47.724998
 31
0.0
  0
LINE
  5
4F
100
AcDbEntity
  8
PV
  6
CONTINUOUS
 62
     3
100
AcDbLine
 10
80.0
 20
-46.310692
 30
0.0
 11
20.0
 21
-46.310692
 31
0.0
  0
LINE
  5
50
100
AcDbEntity
  8
PV
  6
CONTINUOUS
 62
     3
100
AcDbLine
 10
80.0
 20
-45.275002
 30
0.0
 11
20.0
 21
-45.275002
 31
0.0
  0
LINE
  5
51
100
AcDbEntity
  8
PV
  6
CONTINUOUS
 62
     3
100
AcDbLine
 10
80.0
 20
-44.239307
 30
0.0
 11
20.0
 21
-44.239307
 31
0.0
  0
LINE
  5
52
100
AcDbEntity
  8
PV
  6
CONTINUOUS
 62
     3
100
AcDbLine
 10
80.0
 20
-42.825001
 30
0.0
 11
20.0
 21
-42.825001
 31
0.0
  0
LINE
  5
53
100
AcDbEntity
  8
PV
  6
CONTINUOUS
 62
     3
100
AcDbLine
 10
80.0
 20
-37.650002
 30
0.0
 11
20.0
 21
-37.650002
 31
0.0
  0
LINE
  5
54
100
AcDbEntity
  8
PV
  6
CONTINUOUS
 62
     3
100
AcDbLine
 10
80.0
 20
-36.235691
 30
0.0
 11
20.0
 21
-36.235691
 31
0.0
  0
LINE
  5
55
100
AcDbEntity
  8
PV
  6
CONTINUOUS
 62
     3
100
AcDbLine
 10
80.0
 20
-15.275
 30
0.0
 11
80.0
 21
-75.275002
 31
0.0
  0
LINE
  5
56
100
AcDbEntity
  8
PV
  6
CONTINUOUS
 62
     3
100
AcDbLine
 10
80.0
 20
-15.275
 30
0.0
 11
20.0
 21
-15.275
 31
0.0
  0
LINE
  5
57
100
AcDbEntity
  8
PV
  6
CONTINUOUS
 62
     3
100
AcDbLine
 10
20.0
 20
-15.275
 30
0.0
 11
20.0
 21
-75.275002
 31
0.0
  0
LINE
  5
58
100
AcDbEntity
  8
PV
  6
CENTER
 62
     4
100
AcDbLine
 10
75.0
 20
-7.655141
 30
0.0
 11
75.0
 21
-82.382027
 31
0.0
  0
LINE
  5
59
100
AcDbEntity
  8
PV
  6
CENTER
 62
     4
100
AcDbLine
 10
65.0
 20
-7.655141
 30
0.0
 11
65.0
 21
-81.820168
 31
0.0
  0
LINE
  5
5A
100
AcDbEntity
  8
PV
  6
CENTER
 62
     4
100
AcDbLine
 10
12.186882
 20
-20.275
 30
0.0
 11
89.442123
 21
-20.275
 31
0.0
  0
LINE
  5
5B
100
AcDbEntity
  8
PV
  6
CENTER
 62
     4
100
AcDbLine
 10
12.467811
 20
-70.275002
 30
0.0
 11
87.475624
 21
-70.275002
 31
0.0
  0
LINE
  5
5C
100
AcDbEntity
  8
PV
  6
CENTER
 62
     4
100
AcDbLine
 10
25.0
 20
-7.655141
 30
0.0
 11
25.0
 21
-81.820168
 31
0.0
  0
CIRCLE
  5
5D
100
AcDbEntity
  8
PV
  6
CONTINUOUS
 62
     3
100
AcDbCircle
 10
75.0
 20
-70.275002
 30
0.0
 40
1.75
  0
CIRCLE
  5
5E
100
AcDbEntity
  8
PV
  6
CONTINUOUS
 62
     3
100
AcDbCircle
 10
25.0
 20
-70.275002
 30
0.0
 40
1.75
  0
CIRCLE
  5
5F
100
AcDbEntity
  8
PV
  6
CONTINUOUS
 62
     3
100
AcDbCircle
 10
25.0
 20
-20.275
 30
0.0
 40
1.75
  0
CIRCLE
  5
60
100
AcDbEntity
  8
PV
  6
CONTINUOUS
 62
     3
100
AcDbCircle
 10
75.0
 20
-20.275
 30
0.0
 40
1.75
  0
CIRCLE
  5
61
100
AcDbEntity
  8
PV
  6
CONTINUOUS
 62
     3
100
AcDbCircle
 10
65.0
 20
-20.275
 30
0.0
 40
1.75
  0
CIRCLE
  5
62
100
AcDbEntity
  8
PV
  6
CONTINUOUS
 62
     3
100
AcDbCircle
 10
65.0
 20
-70.275002
 30
0.0
 40
1.5
  0
CIRCLE
  5
63
100
AcDbEntity
  8
PV
  6
DASHED
 62
     4
100
AcDbCircle
 10
75.0
 20
-20.275
 30
0.0
 40
3.25
  0
LINE
  5
64
100
AcDbEntity
  8
SV
  6
CONTINUOUS
 62
     3
100
AcDbLine
 10
186.770096
 20
-34.164307
 30
0.0
 11
147.169464
 21
-32.75
 31
0.0
  0
LINE
  5
65
100
AcDbEntity
  8
SV
  6
CONTINUOUS
 62
     3
100
AcDbLine
 10
147.169464
 20
-32.75
 30
0.0
 11
147.169464
 21
-27.575001
 31
0.0
  0
LINE
  5
66
100
AcDbEntity
  8
SV
  6
CONTINUOUS
 62
     3
100
AcDbLine
 10
147.169464
 20
-27.575001
 30
0.0
 11
186.770096
 21
-26.160692
 31
0.0
  0
LINE
  5
67
100
AcDbEntity
  8
SV
  6
CONTINUOUS
 62
     3
100
AcDbLine
 10
186.770096
 20
-24.089308
 30
0.0
 11
147.169464
 21
-22.674999
 31
0.0
  0
LINE
  5
68
100
AcDbEntity
  8
SV
  6
CONTINUOUS
 62
     3
100
AcDbLine
 10
147.169464
 20
-17.5
 30
0.0
 11
147.169464
 21
-22.674999
 31
0.0
  0
LINE
  5
69
100
AcDbEntity
  8
SV
  6
CONTINUOUS
 62
     3
100
AcDbLine
 10
186.770096
 20
-16.085691
 30
0.0
 11
147.169464
 21
-17.5
 31
0.0
  0
LINE
  5
6A
100
AcDbEntity
  8
SV
  6
CONTINUOUS
 62
     3
100
AcDbLine
 10
141.769455
 20
-15.275
 30
0.0
 11
187.744736
 21
-15.275
 31
0.0
  0
LINE
  5
6B
100
AcDbEntity
  8
SV
  6
CONTINUOUS
 62
     3
100
AcDbLine
 10
141.769455
 20
-75.275002
 30
0.0
 11
141.769455
 21
-15.275
 31
0.0
  0
LINE
  5
6C
100
AcDbEntity
  8
SV
  6
CONTINUOUS
 62
     3
100
AcDbLine
 10
141.769455
 20
-75.275002
 30
0.0
 11
187.744736
 21
-75.275002
 31
0.0
  0
LINE
  5
6D
100
AcDbEntity
  8
SV
  6
CONTINUOUS
 62
     3
100
AcDbLine
 10
186.770096
 20
-74.46431
 30
0.0
 11
147.169464
 21
-73.050003
 31
0.0
  0
LINE
  5
6E
100
AcDbEntity
  8
SV
  6
CONTINUOUS
 62
     3
100
AcDbLine
 10
147.169464
 20
-67.875
 30
0.0
 11
147.169464
 21
-73.050003
 31
0.0
  0
LINE
  5
6F
100
AcDbEntity
  8
SV
  6
CONTINUOUS
 62
     3
100
AcDbLine
 10
147.169464
 20
-67.875
 30
0.0
 11
186.770096
 21
-66.460693
 31
0.0
  0
LINE
  5
70
100
AcDbEntity
  8
SV
  6
CONTINUOUS
 62
     3
100
AcDbLine
 10
186.770096
 20
-64.389305
 30
0.0
 11
147.169464
 21
-62.974998
 31
0.0
  0
LINE
  5
71
100
AcDbEntity
  8
SV
  6
CONTINUOUS
 62
     3
100
AcDbLine
 10
147.169464
 20
-62.974998
 30
0.0
 11
147.169464
 21
-57.799999
 31
0.0
  0
LINE
  5
72
100
AcDbEntity
  8
SV
  6
CONTINUOUS
 62
     3
100
AcDbLine
 10
147.169464
 20
-57.799999
 30
0.0
 11
186.770096
 21
-56.385693
 31
0.0
  0
LINE
  5
73
100
AcDbEntity
  8
SV
  6
CONTINUOUS
 62
     3
100
AcDbLine
 10
186.770096
 20
-54.314308
 30
0.0
 11
147.169464
 21
-52.900002
 31
0.0
  0
LINE
  5
74
100
AcDbEntity
  8
SV
  6
CONTINUOUS
 62
     3
100
AcDbLine
 10
147.169464
 20
-52.900002
 30
0.0
 11
147.169464
 21
-47.724998
 31
0.0
  0
LINE
  5
75
100
AcDbEntity
  8
SV
  6
CONTINUOUS
 62
     3
100
AcDbLine
 10
147.169464
 20
-47.724998
 30
0.0
 11
186.770096
 21
-46.310692
 31
0.0
  0
LINE
  5
76
100
AcDbEntity
  8
SV
  6
CONTINUOUS
 62
     3
100
AcDbLine
 10
186.770096
 20
-44.239307
 30
0.0
 11
147.169464
 21
-42.825001
 31
0.0
  0
LINE
  5
77
100
AcDbEntity
  8
SV
  6
CONTINUOUS
 62
     3
100
AcDbLine
 10
147.169464
 20
-42.825001
 30
0.0
 11
147.169464
 21
-37.650002
 31
0.0
  0
LINE
  5
78
100
AcDbEntity
  8
SV
  6
CONTINUOUS
 62
     3
100
AcDbLine
 10
147.169464
 20
-37.650002
 30
0.0
 11
186.770096
 21
-36.235691
 31
0.0
  0
LINE
  5
79
100
AcDbEntity
  8
SV
  6
CENTER
 62
     4
100
AcDbLine
 10
133.537537
 20
-70.275002
 30
0.0
 11
156.235336
 21
-70.275002
 31
0.0
  0
LINE
  5
7A
100
AcDbEntity
  8
SV
  6
CENTER
 62
     4
100
AcDbLine
 10
132.416656
 20
-20.275
 30
0.0
 11
156.515564
 21
-20.275
 31
0.0
  0
LINE
  5
7B
100
AcDbEntity
  8
SV
  6
DASHED
 62
     4
100
AcDbLine
 10
141.769455
 20
-18.525
 30
0.0
 11
147.169464
 21
-18.525
 31
0.0
  0
LINE
  5
7C
100
AcDbEntity
  8
SV
  6
DASHED
 62
     4
100
AcDbLine
 10
141.769455
 20
-22.025
 30
0.0
 11
147.169464
 21
-22.025
 31
0.0
  0
LINE
  5
7D
100
AcDbEntity
  8
SV
  6
DASHED
 62
     4
100
AcDbLine
 10
141.769455
 20
-68.525002
 30
0.0
 11
147.169464
 21
-68.525002
 31
0.0
  0
LINE
  5
7E
100
AcDbEntity
  8
SV
  6
DASHED
 62
     4
100
AcDbLine
 10
141.769455
 20
-72.025002
 30
0.0
 11
147.169464
 21
-72.025002
 31
0.0
  0
LINE
  5
7F
100
AcDbEntity
  8
SV
  6
DASHED
 62
     4
100
AcDbLine
 10
143.269455
 20
-18.525
 30
0.0
 11
141.769455
 21
-17.025
 31
0.0
  0
LINE
  5
80
100
AcDbEntity
  8
SV
  6
DASHED
 62
     4
100
AcDbLine
 10
141.769455
 20
-23.525
 30
0.0
 11
143.269455
 21
-22.025
 31
0.0
  0
LINE
  5
81
100
AcDbEntity
  8
SV
  6
DASHED
 62
     4
100
AcDbLine
 10
143.269455
 20
-22.025
 30
0.0
 11
143.269455
 21
-18.525
 31
0.0
  0
ARC
  5
82
100
AcDbEntity
  8
SV
  6
CONTINUOUS
 62
     3
100
AcDbCircle
 10
186.733109
 20
-35.200001
 30
0.0
 40
1.036352
100
AcDbArc
 50
272.045406
 51
87.954594
  0
ARC
  5
83
100
AcDbEntity
  8
SV
  6
CONTINUOUS
 62
     3
100
AcDbCircle
 10
186.733109
 20
-25.125
 30
0.0
 40
1.036352
100
AcDbArc
 50
272.045406
 51
87.954594
  0
ARC
  5
84
100
AcDbEntity
  8
SV
  6
CONTINUOUS
 62
     3
100
AcDbCircle
 10
186.733109
 20
-15.05
 30
0.0
 40
1.036352
100
AcDbArc
 50
272.045406
 51
347.460787
  0
ARC
  5
85
100
AcDbEntity
  8
SV
  6
CONTINUOUS
 62
     3
100
AcDbCircle
 10
186.733109
 20
-75.5
 30
0.0
 40
1.036352
100
AcDbArc
 50
12.539213
 51
87.954594
  0
ARC
  5
86
100
AcDbEntity
  8
SV
  6
CONTINUOUS
 62
     3
100
AcDbCircle
 10
186.733109
 20
-65.425003
 30
0.0
 40
1.036352
100
AcDbArc
 50
272.045406
 51
87.954594
  0
ARC
  5
87
100
AcDbEntity
  8
SV
  6
CONTINUOUS
 62
     3
100
AcDbCircle
 10
186.733109
 20
-55.349998
 30
0.0
 40
1.036352
100
AcDbArc
 50
272.045406
 51
87.954594
  0
ARC
  5
88
100
AcDbEntity
  8
SV
  6
CONTINUOUS
 62
     3
100
AcDbCircle
 10
186.733109
 20
-45.275002
 30
0.0
 40
1.036352
100
AcDbArc
 50
272.045406
 51
87.954594
  0
LINE
  5
89
100
AcDbEntity
  8
EV
  6
DASHED
 62
     4
100
AcDbLine
 10
19.866911
 20
-113.684242
 30
0.0
 11
79.866913
 21
-113.684242
 31
0.0
  0
LINE
  5
8A
100
AcDbEntity
  8
EV
  6
CONTINUOUS
 62
     3
100
AcDbLine
 10
19.866911
 20
-108.284241
 30
0.0
 11
79.866913
 21
-108.284241
 31
0.0
  0
LINE
  5
8B
100
AcDbEntity
  8
EV
  6
CONTINUOUS
 62
     3
100
AcDbLine
 10
79.866913
 20
-154.259521
 30
0.0
 11
19.866911
 21
-154.259521
 31
0.0
  0
LINE
  5
8C
100
AcDbEntity
  8
EV
  6
CONTINUOUS
 62
     3
100
AcDbLine
 10
79.866913
 20
-154.284241
 30
0.0
 11
79.866913
 21
-108.284241
 31
0.0
  0
LINE
  5
8D
100
AcDbEntity
  8
EV
  6
CONTINUOUS
 62
     3
100
AcDbLine
 10
19.866911
 20
-154.284241
 30
0.0
 11
19.866911
 21
-108.284241
 31
0.0
  0
LINE
  5
8E
100
AcDbEntity
  8
EV
  6
CENTER
 62
     4
100
AcDbLine
 10
74.866913
 20
-101.709473
 30
0.0
 11
74.866913
 21
-117.946976
 31
0.0
  0
LINE
  5
8F
100
AcDbEntity
  8
EV
  6
CENTER
 62
     4
100
AcDbLine
 10
24.866911
 20
-102.473595
 30
0.0
 11
24.866911
 21
-119.857269
 31
0.0
  0
LINE
  5
90
100
AcDbEntity
  8
EV
  6
DASHED
 62
     4
100
AcDbLine
 10
76.616913
 20
-108.284241
 30
0.0
 11
76.616913
 21
-113.684242
 31
0.0
  0
LINE
  5
91
100
AcDbEntity
  8
EV
  6
DASHED
 62
     4
100
AcDbLine
 10
73.116913
 20
-108.284241
 30
0.0
 11
73.116913
 21
-113.684242
 31
0.0
  0
LINE
  5
92
100
AcDbEntity
  8
EV
  6
DASHED
 62
     4
100
AcDbLine
 10
26.616911
 20
-108.284241
 30
0.0
 11
26.616911
 21
-113.684242
 31
0.0
  0
LINE
  5
93
100
AcDbEntity
  8
EV
  6
DASHED
 62
     4
100
AcDbLine
 10
23.116911
 20
-108.284241
 30
0.0
 11
23.116911
 21
-113.684242
 31
0.0
  0
LINE
  5
94
100
AcDbEntity
  8
EV
  6
DASHED
 62
     4
100
AcDbLine
 10
76.616913
 20
-109.784241
 30
0.0
 11
78.116913
 21
-108.284241
 31
0.0
  0
LINE
  5
95
100
AcDbEntity
  8
EV
  6
DASHED
 62
     4
100
AcDbLine
 10
71.616913
 20
-108.284241
 30
0.0
 11
73.116913
 21
-109.784241
 31
0.0
  0
LINE
  5
96
100
AcDbEntity
  8
EV
  6
DASHED
 62
     4
100
AcDbLine
 10
73.116913
 20
-109.784241
 30
0.0
 11
76.616913
 21
-109.784241
 31
0.0
  0
LINE
  5
97
100
AcDbEntity
  8
CA
  6
CONTINUOUS
 62
     3
100
AcDbLine
 10
257.894775
 20
-182.087173
 30
0.0
 11
257.894775
 21
7.912821
 31
0.0
  0
LINE
  5
98
100
AcDbEntity
  8
CA
  6
CONTINUOUS
 62
     4
100
AcDbLine
 10
267.894775
 20
-192.087173
 30
0.0
 11
267.894775
 21
17.912821
 31
0.0
  0
LINE
  5
99
100
AcDbEntity
  8
CA
  6
CONTINUOUS
 62
     4
100
AcDbLine
 10
-29.105213
 20
-192.087173
 30
0.0
 11
-29.105213
 21
17.912821
 31
0.0
  0
LINE
  5
9A
100
AcDbEntity
  8
CA
  6
CONTINUOUS
 62
     3
100
AcDbLine
 10
-19.105213
 20
-182.087173
 30
0.0
 11
-19.105213
 21
7.912821
 31
0.0
  0
LINE
  5
9B
100
AcDbEntity
  8
CA
  6
CONTINUOUS
 62
     3
100
AcDbLine
 10
257.894775
 20
-182.087173
 30
0.0
 11
-19.105213
 21
-182.087173
 31
0.0
  0
LINE
  5
9C
100
AcDbEntity
  8
CA
  6
CONTINUOUS
 62
     4
100
AcDbLine
 10
267.894775
 20
-192.087173
 30
0.0
 11
-29.105213
 21
-192.087173
 31
0.0
  0
LINE
  5
9D
100
AcDbEntity
  8
CA
  6
CONTINUOUS
 62
     4
100
AcDbLine
 10
267.894775
 20
17.912821
 30
0.0
 11
-29.105213
 21
17.912821
 31
0.0
  0
LINE
  5
9E
100
AcDbEntity
  8
CA
  6
CONTINUOUS
 62
     3
100
AcDbLine
 10
257.894775
 20
7.912821
 30
0.0
 11
-19.105213
 21
7.912821
 31
0.0
  0
LINE
  5
9F
100
AcDbEntity
  8
CA
  6
CONTINUOUS
 62
     3
100
AcDbLine
 10
227.894791
 20
-182.087173
 30
0.0
 11
227.894791
 21
7.912821
 31
0.0
  0
LINE
  5
A0
100
AcDbEntity
  8
CA
  6
CONTINUOUS
 62
     3
100
AcDbLine
 10
237.894791
 20
-182.087173
 30
0.0
 11
237.894791
 21
7.912821
 31
0.0
  0
LINE
  5
A1
100
AcDbEntity
  8
CA
  6
CONTINUOUS
 62
     3
100
AcDbLine
 10
257.894775
 20
-17.087179
 30
0.0
 11
237.894791
 21
-17.087179
 31
0.0
  0
LINE
  5
A2
100
AcDbEntity
  8
CA
  6
CONTINUOUS
 62
     3
100
AcDbLine
 10
257.894775
 20
-12.087179
 30
0.0
 11
237.894791
 21
-12.087179
 31
0.0
  0
LINE
  5
A3
100
AcDbEntity
  8
CA
  6
CONTINUOUS
 62
     3
100
AcDbLine
 10
237.894791
 20
-142.087173
 30
0.0
 11
227.894791
 21
-142.087173
 31
0.0
  0
TEXT
  5
A4
100
AcDbEntity
  8
CA
  6
CONTINUOUS
 62
     3
100
AcDbText
 10
250.031262
 20
-178.383732
 30
0.0
 40
4.799982
  1
AUDINE ETANCHE : RADIATEUR
 50
90.000003
  7
MICROCADAM
100
AcDbText
  0
TEXT
  5
A5
100
AcDbEntity
  8
CA
  6
CONTINUOUS
 62
     3
100
AcDbText
 10
251.995727
 20
-9.228667
 30
0.0
 40
8.0
  1
A4
 50
90.000003
  7
MICROCADAM
100
AcDbText
  0
TEXT
  5
A6
100
AcDbEntity
  8
CA
  6
CONTINUOUS
 62
     3
100
AcDbText
 10
254.106405
 20
-13.465618
 30
0.0
 40
2.0
  1
FORMAT
 50
179.999993
  7
MICROCADAM
100
AcDbText
  0
TEXT
  5
A7
100
AcDbEntity
  8
CA
  6
CONTINUOUS
 62
     3
100
AcDbText
 10
234.090027
 20
-179.736243
 30
0.0
 40
3.5
  1
ECHELLE 1:1
 50
90.000003
  7
MICROCADAM
100
AcDbText
  0
TEXT
  5
A8
100
AcDbEntity
  8
CA
  6
CONTINUOUS
 62
     3
100
AcDbText
 10
234.090027
 20
-140.144598
 30
0.0
 40
3.5
  1
MATIERE:Profilé standard
 50
90.000003
  7
MICROCADAM
100
AcDbText
  0
INSERT
  5
11A
100
AcDbEntity
  8
PV
  6
CONTINUOUS
 62
     4
100
AcDbBlockReference
  2
*D1
 10
0.0
 20
0.0
 30
0.0
  0
INSERT
  5
11B
100
AcDbEntity
  8
PV
  6
CONTINUOUS
 62
     4
100
AcDbBlockReference
  2
*D2
 10
0.0
 20
0.0
 30
0.0
  0
INSERT
  5
11C
100
AcDbEntity
  8
PV
  6
CONTINUOUS
 62
     4
100
AcDbBlockReference
  2
*D3
 10
0.0
 20
0.0
 30
0.0
  0
INSERT
  5
11D
100
AcDbEntity
  8
PV
  6
CONTINUOUS
 62
     4
100
AcDbBlockReference
  2
*D4
 10
0.0
 20
0.0
 30
0.0
  0
INSERT
  5
11E
100
AcDbEntity
  8
PV
  6
CONTINUOUS
 62
     4
100
AcDbBlockReference
  2
*D5
 10
0.0
 20
0.0
 30
0.0
  0
INSERT
  5
11F
100
AcDbEntity
  8
PV
  6
CONTINUOUS
 62
     4
100
AcDbBlockReference
  2
*D6
 10
0.0
 20
0.0
 30
0.0
  0
INSERT
  5
120
100
AcDbEntity
  8
SV
  6
CONTINUOUS
 62
     4
100
AcDbBlockReference
  2
*D7
 10
0.0
 20
0.0
 30
0.0
  0
INSERT
  5
121
100
AcDbEntity
  8
SV
  6
CONTINUOUS
 62
     4
100
AcDbBlockReference
  2
*D8
 10
0.0
 20
0.0
 30
0.0
  0
INSERT
  5
122
100
AcDbEntity
  8
SV
  6
CONTINUOUS
 62
     4
100
AcDbBlockReference
  2
*D9
 10
0.0
 20
0.0
 30
0.0
  0
INSERT
  5
123
100
AcDbEntity
  8
EV
  6
CONTINUOUS
 62
     4
100
AcDbBlockReference
  2
*D10
 10
0.0
 20
0.0
 30
0.0
  0
ENDSEC
  0
SECTION
  2
OBJECTS
  0
DICTIONARY
  5
19
100
AcDbDictionary
  3
ACAD_GROUP
350
1A
  3
ACAD_MLINESTYLE
350
1B
  0
DICTIONARY
  5
1A
102
{ACAD_REACTORS
330
19
102
}
100
AcDbDictionary
  0
DICTIONARY
  5
1B
102
{ACAD_REACTORS
330
19
102
}
100
AcDbDictionary
  3
STANDARD
350
1C
  0
MLINESTYLE
  5
1C
102
{ACAD_REACTORS
330
1B
102
}
100
AcDbMlineStyle
  2
STANDARD
 70
     0
  3

 62
     0
 51
90.0
 52
90.0
 71
     2
 49
0.5
 62
   256
  6
BYLAYER
 49
-0.5
 62
   256
  6
BYLAYER
  0
ENDSEC
  0
EOF
